0
SECTION
2
HEADER
9
$ACADVER
1
AC1009
0
ENDSEC
0
SECTION
2
TABLES
0
TABLE
2
LAYER
70
2
0
LAYER
2
TRAV_149
70
64
62
4
6
CONTINUOUS
0
LAYER
2
001
70
64
62
4
6
CONTINUOUS
0
ENDTAB
0
ENDSEC
0
SECTION
2
ENTITIES
0
POLYLINE
8
TRAV_149
62
0
66
1
70
9
0
VERTEX
8
TRAV_149
10
72.500000
20
1035.000000
30
685.001093
0
VERTEX
8
TRAV_149
10
72.452434
20
1035.000000
30
683.911646
0
VERTEX
8
TRAV_149
10
72.452434
20
1050.000000
30
683.911646
0
VERTEX
8
TRAV_149
10
72.500000
20
1050.000000
30
685.001093
0
SEQEND
0
POLYLINE
8
TRAV_149
62
0
66
1
70
9
0
VERTEX
8
TRAV_149
10
72.452434
20
1035.000000
30
683.911646
0
VERTEX
8
TRAV_149
10
72.310097
20
1035.000000
30
682.830490
0
VERTEX
8
TRAV_149
10
72.310097
20
1050.000000
30
682.830490
0
VERTEX
8
TRAV_149
10
72.452434
20
1050.000000
30
683.911646
0
SEQEND
0
POLYLINE
8
TRAV_149
62
0
66
1
70
9
0
VERTEX
8
TRAV_149
10
72.310097
20
1035.000000
30
682.830490
0
VERTEX
8
TRAV_149
10
72.074073
20
1035.000000
30
681.765855
0
VERTEX
8
TRAV_149
10
72.074073
20
1050.000000
30
681.765855
0
VERTEX
8
TRAV_149
10
72.310097
20
1050.000000
30
682.830490
0
SEQEND
0
POLYLINE
8
TRAV_149
62
0
66
1
70
9
0
VERTEX
8
TRAV_149
10
72.074073
20
1035.000000
30
681.765855
0
VERTEX
8
TRAV_149
10
71.746158
20
1035.000000
30
680.725841
0
VERTEX
8
TRAV_149
10
71.746158
20
1050.000000
30
680.725841
0
VERTEX
8
TRAV_149
10
72.074073
20
1050.000000
30
681.765855
0
SEQEND
0
POLYLINE
8
TRAV_149
62
0
66
1
70
9
0
VERTEX
8
TRAV_149
10
71.746158
20
1035.000000
30
680.725841
0
VERTEX
8
TRAV_149
10
71.328847
20
1035.000000
30
679.718364
0
VERTEX
8
TRAV_149
10
71.328847
20
1050.000000
30
679.718364
0
VERTEX
8
TRAV_149
10
71.746158
20
1050.000000
30
680.725841
0
SEQEND
0
POLYLINE
8
TRAV_149
62
0
66
1
70
9
0
VERTEX
8
TRAV_149
10
71.328847
20
1035.000000
30
679.718364
0
VERTEX
8
TRAV_149
10
70.825318
20
1035.000000
30
678.751093
0
VERTEX
8
TRAV_149
10
70.825318
20
1050.000000
30
678.751093
0
VERTEX
8
TRAV_149
10
71.328847
20
1050.000000
30
679.718364
0
SEQEND
0
POLYLINE
8
TRAV_149
62
0
66
1
70
9
0
VERTEX
8
TRAV_149
10
70.825318
20
1035.000000
30
678.751093
0
VERTEX
8
TRAV_149
10
70.239401
20
1035.000000
30
677.831387
0
VERTEX
8
TRAV_149
10
70.239401
20
1050.000000
30
677.831387
0
VERTEX
8
TRAV_149
10
70.825318
20
1050.000000
30
678.751093
0
SEQEND
0
POLYLINE
8
TRAV_149
62
0
66
1
70
9
0
VERTEX
8
TRAV_149
10
70.239401
20
1035.000000
30
677.831387
0
VERTEX
8
TRAV_149
10
69.575556
20
1035.000000
30
676.966248
0
VERTEX
8
TRAV_149
10
69.575556
20
1050.000000
30
676.966248
0
VERTEX
8
TRAV_149
10
70.239401
20
1050.000000
30
677.831387
0
SEQEND
0
POLYLINE
8
TRAV_149
62
0
66
1
70
9
0
VERTEX
8
TRAV_149
10
69.575556
20
1035.000000
30
676.966248
0
VERTEX
8
TRAV_149
10
68.838835
20
1035.000000
30
676.162258
0
VERTEX
8
TRAV_149
10
68.838835
20
1050.000000
30
676.162258
0
VERTEX
8
TRAV_149
10
69.575556
20
1050.000000
30
676.966248
0
SEQEND
0
POLYLINE
8
TRAV_149
62
0
66
1
70
9
0
VERTEX
8
TRAV_149
10
68.838835
20
1035.000000
30
676.162258
0
VERTEX
8
TRAV_149
10
68.034845
20
1035.000000
30
675.425537
0
VERTEX
8
TRAV_149
10
68.034845
20
1050.000000
30
675.425537
0
VERTEX
8
TRAV_149
10
68.838835
20
1050.000000
30
676.162258
0
SEQEND
0
POLYLINE
8
TRAV_149
62
0
66
1
70
9
0
VERTEX
8
TRAV_149
10
68.034845
20
1035.000000
30
675.425537
0
VERTEX
8
TRAV_149
10
67.169705
20
1035.000000
30
674.761692
0
VERTEX
8
TRAV_149
10
67.169705
20
1050.000000
30
674.761692
0
VERTEX
8
TRAV_149
10
68.034845
20
1050.000000
30
675.425537
0
SEQEND
0
POLYLINE
8
TRAV_149
62
0
66
1
70
9
0
VERTEX
8
TRAV_149
10
67.169705
20
1035.000000
30
674.761692
0
VERTEX
8
TRAV_149
10
66.250000
20
1035.000000
30
674.175775
0
VERTEX
8
TRAV_149
10
66.250000
20
1050.000000
30
674.175775
0
VERTEX
8
TRAV_149
10
67.169705
20
1050.000000
30
674.761692
0
SEQEND
0
POLYLINE
8
TRAV_149
62
0
66
1
70
9
0
VERTEX
8
TRAV_149
10
66.250000
20
1035.000000
30
674.175775
0
VERTEX
8
TRAV_149
10
65.282728
20
1035.000000
30
673.672245
0
VERTEX
8
TRAV_149
10
65.282728
20
1050.000000
30
673.672245
0
VERTEX
8
TRAV_149
10
66.250000
20
1050.000000
30
674.175775
0
SEQEND
0
POLYLINE
8
TRAV_149
62
0
66
1
70
9
0
VERTEX
8
TRAV_149
10
65.282728
20
1035.000000
30
673.672245
0
VERTEX
8
TRAV_149
10
64.275252
20
1035.000000
30
673.254935
0
VERTEX
8
TRAV_149
10
64.275252
20
1050.000000
30
673.254935
0
VERTEX
8
TRAV_149
10
65.282728
20
1050.000000
30
673.672245
0
SEQEND
0
POLYLINE
8
TRAV_149
62
0
66
1
70
9
0
VERTEX
8
TRAV_149
10
64.275252
20
1035.000000
30
673.254935
0
VERTEX
8
TRAV_149
10
63.235238
20
1035.000000
30
672.927020
0
VERTEX
8
TRAV_149
10
63.235238
20
1050.000000
30
672.927020
0
VERTEX
8
TRAV_149
10
64.275252
20
1050.000000
30
673.254935
0
SEQEND
0
POLYLINE
8
TRAV_149
62
0
66
1
70
9
0
VERTEX
8
TRAV_149
10
63.235238
20
1035.000000
30
672.927020
0
VERTEX
8
TRAV_149
10
62.170602
20
1035.000000
30
672.690996
0
VERTEX
8
TRAV_149
10
62.170602
20
1050.000000
30
672.690996
0
VERTEX
8
TRAV_149
10
63.235238
20
1050.000000
30
672.927020
0
SEQEND
0
POLYLINE
8
TRAV_149
62
0
66
1
70
9
0
VERTEX
8
TRAV_149
10
62.170602
20
1035.000000
30
672.690996
0
VERTEX
8
TRAV_149
10
61.089447
20
1035.000000
30
672.548659
0
VERTEX
8
TRAV_149
10
61.089447
20
1050.000000
30
672.548659
0
VERTEX
8
TRAV_149
10
62.170602
20
1050.000000
30
672.690996
0
SEQEND
0
POLYLINE
8
TRAV_149
62
0
66
1
70
9
0
VERTEX
8
TRAV_149
10
61.089447
20
1035.000000
30
672.548659
0
VERTEX
8
TRAV_149
10
60.000000
20
1035.000000
30
672.501093
0
VERTEX
8
TRAV_149
10
60.000000
20
1050.000000
30
672.501093
0
VERTEX
8
TRAV_149
10
61.089447
20
1050.000000
30
672.548659
0
SEQEND
0
POLYLINE
8
TRAV_149
62
0
66
1
70
9
0
VERTEX
8
TRAV_149
10
60.000000
20
1035.000000
30
672.501093
0
VERTEX
8
TRAV_149
10
58.910553
20
1035.000000
30
672.548659
0
VERTEX
8
TRAV_149
10
58.910553
20
1050.000000
30
672.548659
0
VERTEX
8
TRAV_149
10
60.000000
20
1050.000000
30
672.501093
0
SEQEND
0
POLYLINE
8
TRAV_149
62
0
66
1
70
9
0
VERTEX
8
TRAV_149
10
58.910553
20
1035.000000
30
672.548659
0
VERTEX
8
TRAV_149
10
57.829398
20
1035.000000
30
672.690996
0
VERTEX
8
TRAV_149
10
57.829398
20
1050.000000
30
672.690996
0
VERTEX
8
TRAV_149
10
58.910553
20
1050.000000
30
672.548659
0
SEQEND
0
POLYLINE
8
TRAV_149
62
0
66
1
70
9
0
VERTEX
8
TRAV_149
10
57.829398
20
1035.000000
30
672.690996
0
VERTEX
8
TRAV_149
10
56.764762
20
1035.000000
30
672.927020
0
VERTEX
8
TRAV_149
10
56.764762
20
1050.000000
30
672.927020
0
VERTEX
8
TRAV_149
10
57.829398
20
1050.000000
30
672.690996
0
SEQEND
0
POLYLINE
8
TRAV_149
62
0
66
1
70
9
0
VERTEX
8
TRAV_149
10
56.764762
20
1035.000000
30
672.927020
0
VERTEX
8
TRAV_149
10
55.724748
20
1035.000000
30
673.254935
0
VERTEX
8
TRAV_149
10
55.724748
20
1050.000000
30
673.254935
0
VERTEX
8
TRAV_149
10
56.764762
20
1050.000000
30
672.927020
0
SEQEND
0
POLYLINE
8
TRAV_149
62
0
66
1
70
9
0
VERTEX
8
TRAV_149
10
55.724748
20
1035.000000
30
673.254935
0
VERTEX
8
TRAV_149
10
54.717272
20
1035.000000
30
673.672245
0
VERTEX
8
TRAV_149
10
54.717272
20
1050.000000
30
673.672245
0
VERTEX
8
TRAV_149
10
55.724748
20
1050.000000
30
673.254935
0
SEQEND
0
POLYLINE
8
TRAV_149
62
0
66
1
70
9
0
VERTEX
8
TRAV_149
10
54.717272
20
1035.000000
30
673.672245
0
VERTEX
8
TRAV_149
10
53.750000
20
1035.000000
30
674.175775
0
VERTEX
8
TRAV_149
10
53.750000
20
1050.000000
30
674.175775
0
VERTEX
8
TRAV_149
10
54.717272
20
1050.000000
30
673.672245
0
SEQEND
0
POLYLINE
8
TRAV_149
62
0
66
1
70
9
0
VERTEX
8
TRAV_149
10
53.750000
20
1035.000000
30
674.175775
0
VERTEX
8
TRAV_149
10
52.830295
20
1035.000000
30
674.761692
0
VERTEX
8
TRAV_149
10
52.830295
20
1050.000000
30
674.761692
0
VERTEX
8
TRAV_149
10
53.750000
20
1050.000000
30
674.175775
0
SEQEND
0
POLYLINE
8
TRAV_149
62
0
66
1
70
9
0
VERTEX
8
TRAV_149
10
52.830295
20
1035.000000
30
674.761692
0
VERTEX
8
TRAV_149
10
51.965155
20
1035.000000
30
675.425537
0
VERTEX
8
TRAV_149
10
51.965155
20
1050.000000
30
675.425537
0
VERTEX
8
TRAV_149
10
52.830295
20
1050.000000
30
674.761692
0
SEQEND
0
POLYLINE
8
TRAV_149
62
0
66
1
70
9
0
VERTEX
8
TRAV_149
10
51.965155
20
1035.000000
30
675.425537
0
VERTEX
8
TRAV_149
10
51.161165
20
1035.000000
30
676.162258
0
VERTEX
8
TRAV_149
10
51.161165
20
1050.000000
30
676.162258
0
VERTEX
8
TRAV_149
10
51.965155
20
1050.000000
30
675.425537
0
SEQEND
0
POLYLINE
8
TRAV_149
62
0
66
1
70
9
0
VERTEX
8
TRAV_149
10
51.161165
20
1035.000000
30
676.162258
0
VERTEX
8
TRAV_149
10
50.424444
20
1035.000000
30
676.966248
0
VERTEX
8
TRAV_149
10
50.424444
20
1050.000000
30
676.966248
0
VERTEX
8
TRAV_149
10
51.161165
20
1050.000000
30
676.162258
0
SEQEND
0
POLYLINE
8
TRAV_149
62
0
66
1
70
9
0
VERTEX
8
TRAV_149
10
50.424444
20
1035.000000
30
676.966248
0
VERTEX
8
TRAV_149
10
49.760599
20
1035.000000
30
677.831387
0
VERTEX
8
TRAV_149
10
49.760599
20
1050.000000
30
677.831387
0
VERTEX
8
TRAV_149
10
50.424444
20
1050.000000
30
676.966248
0
SEQEND
0
POLYLINE
8
TRAV_149
62
0
66
1
70
9
0
VERTEX
8
TRAV_149
10
49.760599
20
1035.000000
30
677.831387
0
VERTEX
8
TRAV_149
10
49.174682
20
1035.000000
30
678.751093
0
VERTEX
8
TRAV_149
10
49.174682
20
1050.000000
30
678.751093
0
VERTEX
8
TRAV_149
10
49.760599
20
1050.000000
30
677.831387
0
SEQEND
0
POLYLINE
8
TRAV_149
62
0
66
1
70
9
0
VERTEX
8
TRAV_149
10
49.174682
20
1035.000000
30
678.751093
0
VERTEX
8
TRAV_149
10
48.671153
20
1035.000000
30
679.718364
0
VERTEX
8
TRAV_149
10
48.671153
20
1050.000000
30
679.718364
0
VERTEX
8
TRAV_149
10
49.174682
20
1050.000000
30
678.751093
0
SEQEND
0
POLYLINE
8
TRAV_149
62
0
66
1
70
9
0
VERTEX
8
TRAV_149
10
48.671153
20
1035.000000
30
679.718364
0
VERTEX
8
TRAV_149
10
48.253842
20
1035.000000
30
680.725841
0
VERTEX
8
TRAV_149
10
48.253842
20
1050.000000
30
680.725841
0
VERTEX
8
TRAV_149
10
48.671153
20
1050.000000
30
679.718364
0
SEQEND
0
POLYLINE
8
TRAV_149
62
0
66
1
70
9
0
VERTEX
8
TRAV_149
10
48.253842
20
1035.000000
30
680.725841
0
VERTEX
8
TRAV_149
10
47.925927
20
1035.000000
30
681.765855
0
VERTEX
8
TRAV_149
10
47.925927
20
1050.000000
30
681.765855
0
VERTEX
8
TRAV_149
10
48.253842
20
1050.000000
30
680.725841
0
SEQEND
0
POLYLINE
8
TRAV_149
62
0
66
1
70
9
0
VERTEX
8
TRAV_149
10
47.925927
20
1035.000000
30
681.765855
0
VERTEX
8
TRAV_149
10
47.689903
20
1035.000000
30
682.830490
0
VERTEX
8
TRAV_149
10
47.689903
20
1050.000000
30
682.830490
0
VERTEX
8
TRAV_149
10
47.925927
20
1050.000000
30
681.765855
0
SEQEND
0
POLYLINE
8
TRAV_149
62
0
66
1
70
9
0
VERTEX
8
TRAV_149
10
47.689903
20
1035.000000
30
682.830490
0
VERTEX
8
TRAV_149
10
47.547566
20
1035.000000
30
683.911646
0
VERTEX
8
TRAV_149
10
47.547566
20
1050.000000
30
683.911646
0
VERTEX
8
TRAV_149
10
47.689903
20
1050.000000
30
682.830490
0
SEQEND
0
POLYLINE
8
TRAV_149
62
0
66
1
70
9
0
VERTEX
8
TRAV_149
10
47.547566
20
1035.000000
30
683.911646
0
VERTEX
8
TRAV_149
10
47.500000
20
1035.000000
30
685.001093
0
VERTEX
8
TRAV_149
10
47.500000
20
1050.000000
30
685.001093
0
VERTEX
8
TRAV_149
10
47.547566
20
1050.000000
30
683.911646
0
SEQEND
0
POLYLINE
8
TRAV_149
62
0
66
1
70
9
0
VERTEX
8
TRAV_149
10
47.500000
20
1035.000000
30
685.001093
0
VERTEX
8
TRAV_149
10
47.547566
20
1035.000000
30
686.090539
0
VERTEX
8
TRAV_149
10
47.547566
20
1050.000000
30
686.090539
0
VERTEX
8
TRAV_149
10
47.500000
20
1050.000000
30
685.001093
0
SEQEND
0
POLYLINE
8
TRAV_149
62
0
66
1
70
9
0
VERTEX
8
TRAV_149
10
47.547566
20
1035.000000
30
686.090539
0
VERTEX
8
TRAV_149
10
47.689903
20
1035.000000
30
687.171695
0
VERTEX
8
TRAV_149
10
47.689903
20
1050.000000
30
687.171695
0
VERTEX
8
TRAV_149
10
47.547566
20
1050.000000
30
686.090539
0
SEQEND
0
POLYLINE
8
TRAV_149
62
0
66
1
70
9
0
VERTEX
8
TRAV_149
10
47.689903
20
1035.000000
30
687.171695
0
VERTEX
8
TRAV_149
10
47.925927
20
1035.000000
30
688.236331
0
VERTEX
8
TRAV_149
10
47.925927
20
1050.000000
30
688.236331
0
VERTEX
8
TRAV_149
10
47.689903
20
1050.000000
30
687.171695
0
SEQEND
0
POLYLINE
8
TRAV_149
62
0
66
1
70
9
0
VERTEX
8
TRAV_149
10
47.925927
20
1035.000000
30
688.236331
0
VERTEX
8
TRAV_149
10
48.253842
20
1035.000000
30
689.276344
0
VERTEX
8
TRAV_149
10
48.253842
20
1050.000000
30
689.276344
0
VERTEX
8
TRAV_149
10
47.925927
20
1050.000000
30
688.236331
0
SEQEND
0
POLYLINE
8
TRAV_149
62
0
66
1
70
9
0
VERTEX
8
TRAV_149
10
48.253842
20
1035.000000
30
689.276344
0
VERTEX
8
TRAV_149
10
48.671153
20
1035.000000
30
690.283821
0
VERTEX
8
TRAV_149
10
48.671153
20
1050.000000
30
690.283821
0
VERTEX
8
TRAV_149
10
48.253842
20
1050.000000
30
689.276344
0
SEQEND
0
POLYLINE
8
TRAV_149
62
0
66
1
70
9
0
VERTEX
8
TRAV_149
10
48.671153
20
1035.000000
30
690.283821
0
VERTEX
8
TRAV_149
10
49.174682
20
1035.000000
30
691.251093
0
VERTEX
8
TRAV_149
10
49.174682
20
1050.000000
30
691.251093
0
VERTEX
8
TRAV_149
10
48.671153
20
1050.000000
30
690.283821
0
SEQEND
0
POLYLINE
8
TRAV_149
62
0
66
1
70
9
0
VERTEX
8
TRAV_149
10
49.174682
20
1035.000000
30
691.251093
0
VERTEX
8
TRAV_149
10
49.760599
20
1035.000000
30
692.170798
0
VERTEX
8
TRAV_149
10
49.760599
20
1050.000000
30
692.170798
0
VERTEX
8
TRAV_149
10
49.174682
20
1050.000000
30
691.251093
0
SEQEND
0
POLYLINE
8
TRAV_149
62
0
66
1
70
9
0
VERTEX
8
TRAV_149
10
49.760599
20
1035.000000
30
692.170798
0
VERTEX
8
TRAV_149
10
50.424444
20
1035.000000
30
693.035938
0
VERTEX
8
TRAV_149
10
50.424444
20
1050.000000
30
693.035938
0
VERTEX
8
TRAV_149
10
49.760599
20
1050.000000
30
692.170798
0
SEQEND
0
POLYLINE
8
TRAV_149
62
0
66
1
70
9
0
VERTEX
8
TRAV_149
10
50.424444
20
1035.000000
30
693.035938
0
VERTEX
8
TRAV_149
10
51.161165
20
1035.000000
30
693.839927
0
VERTEX
8
TRAV_149
10
51.161165
20
1050.000000
30
693.839927
0
VERTEX
8
TRAV_149
10
50.424444
20
1050.000000
30
693.035938
0
SEQEND
0
POLYLINE
8
TRAV_149
62
0
66
1
70
9
0
VERTEX
8
TRAV_149
10
51.161165
20
1035.000000
30
693.839927
0
VERTEX
8
TRAV_149
10
51.965155
20
1035.000000
30
694.576648
0
VERTEX
8
TRAV_149
10
51.965155
20
1050.000000
30
694.576648
0
VERTEX
8
TRAV_149
10
51.161165
20
1050.000000
30
693.839927
0
SEQEND
0
POLYLINE
8
TRAV_149
62
0
66
1
70
9
0
VERTEX
8
TRAV_149
10
51.965155
20
1035.000000
30
694.576648
0
VERTEX
8
TRAV_149
10
52.830295
20
1035.000000
30
695.240493
0
VERTEX
8
TRAV_149
10
52.830295
20
1050.000000
30
695.240493
0
VERTEX
8
TRAV_149
10
51.965155
20
1050.000000
30
694.576648
0
SEQEND
0
POLYLINE
8
TRAV_149
62
0
66
1
70
9
0
VERTEX
8
TRAV_149
10
52.830295
20
1035.000000
30
695.240493
0
VERTEX
8
TRAV_149
10
53.750000
20
1035.000000
30
695.826410
0
VERTEX
8
TRAV_149
10
53.750000
20
1050.000000
30
695.826410
0
VERTEX
8
TRAV_149
10
52.830295
20
1050.000000
30
695.240493
0
SEQEND
0
POLYLINE
8
TRAV_149
62
0
66
1
70
9
0
VERTEX
8
TRAV_149
10
53.750000
20
1035.000000
30
695.826410
0
VERTEX
8
TRAV_149
10
54.717272
20
1035.000000
30
696.329940
0
VERTEX
8
TRAV_149
10
54.717272
20
1050.000000
30
696.329940
0
VERTEX
8
TRAV_149
10
53.750000
20
1050.000000
30
695.826410
0
SEQEND
0
POLYLINE
8
TRAV_149
62
0
66
1
70
9
0
VERTEX
8
TRAV_149
10
54.717272
20
1035.000000
30
696.329940
0
VERTEX
8
TRAV_149
10
55.724748
20
1035.000000
30
696.747250
0
VERTEX
8
TRAV_149
10
55.724748
20
1050.000000
30
696.747250
0
VERTEX
8
TRAV_149
10
54.717272
20
1050.000000
30
696.329940
0
SEQEND
0
POLYLINE
8
TRAV_149
62
0
66
1
70
9
0
VERTEX
8
TRAV_149
10
55.724748
20
1035.000000
30
696.747250
0
VERTEX
8
TRAV_149
10
56.764762
20
1035.000000
30
697.075165
0
VERTEX
8
TRAV_149
10
56.764762
20
1050.000000
30
697.075165
0
VERTEX
8
TRAV_149
10
55.724748
20
1050.000000
30
696.747250
0
SEQEND
0
POLYLINE
8
TRAV_149
62
0
66
1
70
9
0
VERTEX
8
TRAV_149
10
56.764762
20
1035.000000
30
697.075165
0
VERTEX
8
TRAV_149
10
57.829398
20
1035.000000
30
697.311190
0
VERTEX
8
TRAV_149
10
57.829398
20
1050.000000
30
697.311190
0
VERTEX
8
TRAV_149
10
56.764762
20
1050.000000
30
697.075165
0
SEQEND
0
POLYLINE
8
TRAV_149
62
0
66
1
70
9
0
VERTEX
8
TRAV_149
10
57.829398
20
1035.000000
30
697.311190
0
VERTEX
8
TRAV_149
10
58.910553
20
1035.000000
30
697.453526
0
VERTEX
8
TRAV_149
10
58.910553
20
1050.000000
30
697.453526
0
VERTEX
8
TRAV_149
10
57.829398
20
1050.000000
30
697.311190
0
SEQEND
0
POLYLINE
8
TRAV_149
62
0
66
1
70
9
0
VERTEX
8
TRAV_149
10
58.910553
20
1035.000000
30
697.453526
0
VERTEX
8
TRAV_149
10
60.000000
20
1035.000000
30
697.501093
0
VERTEX
8
TRAV_149
10
60.000000
20
1050.000000
30
697.501093
0
VERTEX
8
TRAV_149
10
58.910553
20
1050.000000
30
697.453526
0
SEQEND
0
POLYLINE
8
TRAV_149
62
0
66
1
70
9
0
VERTEX
8
TRAV_149
10
60.000000
20
1035.000000
30
697.501093
0
VERTEX
8
TRAV_149
10
61.089447
20
1035.000000
30
697.453526
0
VERTEX
8
TRAV_149
10
61.089447
20
1050.000000
30
697.453526
0
VERTEX
8
TRAV_149
10
60.000000
20
1050.000000
30
697.501093
0
SEQEND
0
POLYLINE
8
TRAV_149
62
0
66
1
70
9
0
VERTEX
8
TRAV_149
10
61.089447
20
1035.000000
30
697.453526
0
VERTEX
8
TRAV_149
10
62.170602
20
1035.000000
30
697.311190
0
VERTEX
8
TRAV_149
10
62.170602
20
1050.000000
30
697.311190
0
VERTEX
8
TRAV_149
10
61.089447
20
1050.000000
30
697.453526
0
SEQEND
0
POLYLINE
8
TRAV_149
62
0
66
1
70
9
0
VERTEX
8
TRAV_149
10
62.170602
20
1035.000000
30
697.311190
0
VERTEX
8
TRAV_149
10
63.235238
20
1035.000000
30
697.075165
0
VERTEX
8
TRAV_149
10
63.235238
20
1050.000000
30
697.075165
0
VERTEX
8
TRAV_149
10
62.170602
20
1050.000000
30
697.311190
0
SEQEND
0
POLYLINE
8
TRAV_149
62
0
66
1
70
9
0
VERTEX
8
TRAV_149
10
63.235238
20
1035.000000
30
697.075165
0
VERTEX
8
TRAV_149
10
64.275252
20
1035.000000
30
696.747250
0
VERTEX
8
TRAV_149
10
64.275252
20
1050.000000
30
696.747250
0
VERTEX
8
TRAV_149
10
63.235238
20
1050.000000
30
697.075165
0
SEQEND
0
POLYLINE
8
TRAV_149
62
0
66
1
70
9
0
VERTEX
8
TRAV_149
10
64.275252
20
1035.000000
30
696.747250
0
VERTEX
8
TRAV_149
10
65.282728
20
1035.000000
30
696.329940
0
VERTEX
8
TRAV_149
10
65.282728
20
1050.000000
30
696.329940
0
VERTEX
8
TRAV_149
10
64.275252
20
1050.000000
30
696.747250
0
SEQEND
0
POLYLINE
8
TRAV_149
62
0
66
1
70
9
0
VERTEX
8
TRAV_149
10
65.282728
20
1035.000000
30
696.329940
0
VERTEX
8
TRAV_149
10
66.250000
20
1035.000000
30
695.826410
0
VERTEX
8
TRAV_149
10
66.250000
20
1050.000000
30
695.826410
0
VERTEX
8
TRAV_149
10
65.282728
20
1050.000000
30
696.329940
0
SEQEND
0
POLYLINE
8
TRAV_149
62
0
66
1
70
9
0
VERTEX
8
TRAV_149
10
66.250000
20
1035.000000
30
695.826410
0
VERTEX
8
TRAV_149
10
67.169705
20
1035.000000
30
695.240493
0
VERTEX
8
TRAV_149
10
67.169705
20
1050.000000
30
695.240493
0
VERTEX
8
TRAV_149
10
66.250000
20
1050.000000
30
695.826410
0
SEQEND
0
POLYLINE
8
TRAV_149
62
0
66
1
70
9
0
VERTEX
8
TRAV_149
10
67.169705
20
1035.000000
30
695.240493
0
VERTEX
8
TRAV_149
10
68.034845
20
1035.000000
30
694.576648
0
VERTEX
8
TRAV_149
10
68.034845
20
1050.000000
30
694.576648
0
VERTEX
8
TRAV_149
10
67.169705
20
1050.000000
30
695.240493
0
SEQEND
0
POLYLINE
8
TRAV_149
62
0
66
1
70
9
0
VERTEX
8
TRAV_149
10
68.034845
20
1035.000000
30
694.576648
0
VERTEX
8
TRAV_149
10
68.838835
20
1035.000000
30
693.839927
0
VERTEX
8
TRAV_149
10
68.838835
20
1050.000000
30
693.839927
0
VERTEX
8
TRAV_149
10
68.034845
20
1050.000000
30
694.576648
0
SEQEND
0
POLYLINE
8
TRAV_149
62
0
66
1
70
9
0
VERTEX
8
TRAV_149
10
68.838835
20
1035.000000
30
693.839927
0
VERTEX
8
TRAV_149
10
69.575556
20
1035.000000
30
693.035938
0
VERTEX
8
TRAV_149
10
69.575556
20
1050.000000
30
693.035938
0
VERTEX
8
TRAV_149
10
68.838835
20
1050.000000
30
693.839927
0
SEQEND
0
POLYLINE
8
TRAV_149
62
0
66
1
70
9
0
VERTEX
8
TRAV_149
10
69.575556
20
1035.000000
30
693.035938
0
VERTEX
8
TRAV_149
10
70.239401
20
1035.000000
30
692.170798
0
VERTEX
8
TRAV_149
10
70.239401
20
1050.000000
30
692.170798
0
VERTEX
8
TRAV_149
10
69.575556
20
1050.000000
30
693.035938
0
SEQEND
0
POLYLINE
8
TRAV_149
62
0
66
1
70
9
0
VERTEX
8
TRAV_149
10
70.239401
20
1035.000000
30
692.170798
0
VERTEX
8
TRAV_149
10
70.825318
20
1035.000000
30
691.251093
0
VERTEX
8
TRAV_149
10
70.825318
20
1050.000000
30
691.251093
0
VERTEX
8
TRAV_149
10
70.239401
20
1050.000000
30
692.170798
0
SEQEND
0
POLYLINE
8
TRAV_149
62
0
66
1
70
9
0
VERTEX
8
TRAV_149
10
70.825318
20
1035.000000
30
691.251093
0
VERTEX
8
TRAV_149
10
71.328847
20
1035.000000
30
690.283821
0
VERTEX
8
TRAV_149
10
71.328847
20
1050.000000
30
690.283821
0
VERTEX
8
TRAV_149
10
70.825318
20
1050.000000
30
691.251093
0
SEQEND
0
POLYLINE
8
TRAV_149
62
0
66
1
70
9
0
VERTEX
8
TRAV_149
10
71.328847
20
1035.000000
30
690.283821
0
VERTEX
8
TRAV_149
10
71.746158
20
1035.000000
30
689.276344
0
VERTEX
8
TRAV_149
10
71.746158
20
1050.000000
30
689.276344
0
VERTEX
8
TRAV_149
10
71.328847
20
1050.000000
30
690.283821
0
SEQEND
0
POLYLINE
8
TRAV_149
62
0
66
1
70
9
0
VERTEX
8
TRAV_149
10
71.746158
20
1035.000000
30
689.276344
0
VERTEX
8
TRAV_149
10
72.074073
20
1035.000000
30
688.236331
0
VERTEX
8
TRAV_149
10
72.074073
20
1050.000000
30
688.236331
0
VERTEX
8
TRAV_149
10
71.746158
20
1050.000000
30
689.276344
0
SEQEND
0
POLYLINE
8
TRAV_149
62
0
66
1
70
9
0
VERTEX
8
TRAV_149
10
72.074073
20
1035.000000
30
688.236331
0
VERTEX
8
TRAV_149
10
72.310097
20
1035.000000
30
687.171695
0
VERTEX
8
TRAV_149
10
72.310097
20
1050.000000
30
687.171695
0
VERTEX
8
TRAV_149
10
72.074073
20
1050.000000
30
688.236331
0
SEQEND
0
POLYLINE
8
TRAV_149
62
0
66
1
70
9
0
VERTEX
8
TRAV_149
10
72.310097
20
1035.000000
30
687.171695
0
VERTEX
8
TRAV_149
10
72.452434
20
1035.000000
30
686.090539
0
VERTEX
8
TRAV_149
10
72.452434
20
1050.000000
30
686.090539
0
VERTEX
8
TRAV_149
10
72.310097
20
1050.000000
30
687.171695
0
SEQEND
0
POLYLINE
8
TRAV_149
62
0
66
1
70
9
0
VERTEX
8
TRAV_149
10
72.452434
20
1035.000000
30
686.090539
0
VERTEX
8
TRAV_149
10
72.500000
20
1035.000000
30
685.001093
0
VERTEX
8
TRAV_149
10
72.500000
20
1050.000000
30
685.001093
0
VERTEX
8
TRAV_149
10
72.452434
20
1050.000000
30
686.090539
0
SEQEND
0
POLYLINE
8
TRAV_149
62
0
66
1
70
9
0
VERTEX
8
TRAV_149
10
72.452434
20
1035.000000
30
686.090539
0
VERTEX
8
TRAV_149
10
72.310097
20
1035.000000
30
687.171695
0
VERTEX
8
TRAV_149
10
72.074073
20
1035.000000
30
688.236331
0
VERTEX
8
TRAV_149
10
71.746158
20
1035.000000
30
689.276344
0
VERTEX
8
TRAV_149
10
71.328847
20
1035.000000
30
690.283821
0
VERTEX
8
TRAV_149
10
70.825318
20
1035.000000
30
691.251093
0
VERTEX
8
TRAV_149
10
70.239401
20
1035.000000
30
692.170798
0
VERTEX
8
TRAV_149
10
69.575556
20
1035.000000
30
693.035938
0
VERTEX
8
TRAV_149
10
68.838835
20
1035.000000
30
693.839927
0
VERTEX
8
TRAV_149
10
68.034845
20
1035.000000
30
694.576648
0
VERTEX
8
TRAV_149
10
67.169705
20
1035.000000
30
695.240493
0
VERTEX
8
TRAV_149
10
66.250000
20
1035.000000
30
695.826410
0
VERTEX
8
TRAV_149
10
65.282728
20
1035.000000
30
696.329940
0
VERTEX
8
TRAV_149
10
64.275252
20
1035.000000
30
696.747250
0
VERTEX
8
TRAV_149
10
63.235238
20
1035.000000
30
697.075165
0
VERTEX
8
TRAV_149
10
62.170602
20
1035.000000
30
697.311190
0
VERTEX
8
TRAV_149
10
61.089447
20
1035.000000
30
697.453526
0
VERTEX
8
TRAV_149
10
60.000000
20
1035.000000
30
697.501093
0
VERTEX
8
TRAV_149
10
58.910553
20
1035.000000
30
697.453526
0
VERTEX
8
TRAV_149
10
57.829398
20
1035.000000
30
697.311190
0
VERTEX
8
TRAV_149
10
56.764762
20
1035.000000
30
697.075165
0
VERTEX
8
TRAV_149
10
55.724748
20
1035.000000
30
696.747250
0
VERTEX
8
TRAV_149
10
54.717272
20
1035.000000
30
696.329940
0
VERTEX
8
TRAV_149
10
53.750000
20
1035.000000
30
695.826410
0
VERTEX
8
TRAV_149
10
52.830295
20
1035.000000
30
695.240493
0
VERTEX
8
TRAV_149
10
51.965155
20
1035.000000
30
694.576648
0
VERTEX
8
TRAV_149
10
51.161165
20
1035.000000
30
693.839927
0
VERTEX
8
TRAV_149
10
50.424444
20
1035.000000
30
693.035938
0
VERTEX
8
TRAV_149
10
49.760599
20
1035.000000
30
692.170798
0
VERTEX
8
TRAV_149
10
49.174682
20
1035.000000
30
691.251093
0
VERTEX
8
TRAV_149
10
48.671153
20
1035.000000
30
690.283821
0
VERTEX
8
TRAV_149
10
48.253842
20
1035.000000
30
689.276344
0
VERTEX
8
TRAV_149
10
47.925927
20
1035.000000
30
688.236331
0
VERTEX
8
TRAV_149
10
47.689903
20
1035.000000
30
687.171695
0
VERTEX
8
TRAV_149
10
47.547566
20
1035.000000
30
686.090539
0
VERTEX
8
TRAV_149
10
47.500000
20
1035.000000
30
685.001093
0
VERTEX
8
TRAV_149
10
47.547566
20
1035.000000
30
683.911646
0
VERTEX
8
TRAV_149
10
47.689903
20
1035.000000
30
682.830490
0
VERTEX
8
TRAV_149
10
47.925927
20
1035.000000
30
681.765855
0
VERTEX
8
TRAV_149
10
48.253842
20
1035.000000
30
680.725841
0
VERTEX
8
TRAV_149
10
48.671153
20
1035.000000
30
679.718364
0
VERTEX
8
TRAV_149
10
49.174682
20
1035.000000
30
678.751093
0
VERTEX
8
TRAV_149
10
49.760599
20
1035.000000
30
677.831387
0
VERTEX
8
TRAV_149
10
50.424444
20
1035.000000
30
676.966248
0
VERTEX
8
TRAV_149
10
51.161165
20
1035.000000
30
676.162258
0
VERTEX
8
TRAV_149
10
51.965155
20
1035.000000
30
675.425537
0
VERTEX
8
TRAV_149
10
52.830295
20
1035.000000
30
674.761692
0
VERTEX
8
TRAV_149
10
53.750000
20
1035.000000
30
674.175775
0
VERTEX
8
TRAV_149
10
54.717272
20
1035.000000
30
673.672245
0
VERTEX
8
TRAV_149
10
55.724748
20
1035.000000
30
673.254935
0
VERTEX
8
TRAV_149
10
56.764762
20
1035.000000
30
672.927020
0
VERTEX
8
TRAV_149
10
57.829398
20
1035.000000
30
672.690996
0
VERTEX
8
TRAV_149
10
58.910553
20
1035.000000
30
672.548659
0
VERTEX
8
TRAV_149
10
60.000000
20
1035.000000
30
672.501093
0
VERTEX
8
TRAV_149
10
61.089447
20
1035.000000
30
672.548659
0
VERTEX
8
TRAV_149
10
62.170602
20
1035.000000
30
672.690996
0
VERTEX
8
TRAV_149
10
63.235238
20
1035.000000
30
672.927020
0
VERTEX
8
TRAV_149
10
64.275252
20
1035.000000
30
673.254935
0
VERTEX
8
TRAV_149
10
65.282728
20
1035.000000
30
673.672245
0
VERTEX
8
TRAV_149
10
66.250000
20
1035.000000
30
674.175775
0
VERTEX
8
TRAV_149
10
67.169705
20
1035.000000
30
674.761692
0
VERTEX
8
TRAV_149
10
68.034845
20
1035.000000
30
675.425537
0
VERTEX
8
TRAV_149
10
68.838835
20
1035.000000
30
676.162258
0
VERTEX
8
TRAV_149
10
69.575556
20
1035.000000
30
676.966248
0
VERTEX
8
TRAV_149
10
70.239401
20
1035.000000
30
677.831387
0
VERTEX
8
TRAV_149
10
70.825318
20
1035.000000
30
678.751093
0
VERTEX
8
TRAV_149
10
71.328847
20
1035.000000
30
679.718364
0
VERTEX
8
TRAV_149
10
71.746158
20
1035.000000
30
680.725841
0
VERTEX
8
TRAV_149
10
72.074073
20
1035.000000
30
681.765855
0
VERTEX
8
TRAV_149
10
72.310097
20
1035.000000
30
682.830490
0
VERTEX
8
TRAV_149
10
72.452434
20
1035.000000
30
683.911646
0
VERTEX
8
TRAV_149
10
72.500000
20
1035.000000
30
685.001093
0
SEQEND
0
POLYLINE
8
TRAV_149
62
0
66
1
70
9
0
VERTEX
8
TRAV_149
10
72.500000
20
1050.000000
30
685.001093
0
VERTEX
8
TRAV_149
10
72.452434
20
1050.000000
30
683.911646
0
VERTEX
8
TRAV_149
10
72.310097
20
1050.000000
30
682.830490
0
VERTEX
8
TRAV_149
10
72.074073
20
1050.000000
30
681.765855
0
VERTEX
8
TRAV_149
10
71.746158
20
1050.000000
30
680.725841
0
VERTEX
8
TRAV_149
10
71.328847
20
1050.000000
30
679.718364
0
VERTEX
8
TRAV_149
10
70.825318
20
1050.000000
30
678.751093
0
VERTEX
8
TRAV_149
10
70.239401
20
1050.000000
30
677.831387
0
VERTEX
8
TRAV_149
10
69.575556
20
1050.000000
30
676.966248
0
VERTEX
8
TRAV_149
10
68.838835
20
1050.000000
30
676.162258
0
VERTEX
8
TRAV_149
10
68.034845
20
1050.000000
30
675.425537
0
VERTEX
8
TRAV_149
10
67.169705
20
1050.000000
30
674.761692
0
VERTEX
8
TRAV_149
10
66.250000
20
1050.000000
30
674.175775
0
VERTEX
8
TRAV_149
10
65.282728
20
1050.000000
30
673.672245
0
VERTEX
8
TRAV_149
10
64.275252
20
1050.000000
30
673.254935
0
VERTEX
8
TRAV_149
10
63.235238
20
1050.000000
30
672.927020
0
VERTEX
8
TRAV_149
10
62.170602
20
1050.000000
30
672.690996
0
VERTEX
8
TRAV_149
10
61.089447
20
1050.000000
30
672.548659
0
VERTEX
8
TRAV_149
10
60.000000
20
1050.000000
30
672.501093
0
VERTEX
8
TRAV_149
10
58.910553
20
1050.000000
30
672.548659
0
VERTEX
8
TRAV_149
10
57.829398
20
1050.000000
30
672.690996
0
VERTEX
8
TRAV_149
10
56.764762
20
1050.000000
30
672.927020
0
VERTEX
8
TRAV_149
10
55.724748
20
1050.000000
30
673.254935
0
VERTEX
8
TRAV_149
10
54.717272
20
1050.000000
30
673.672245
0
VERTEX
8
TRAV_149
10
53.750000
20
1050.000000
30
674.175775
0
VERTEX
8
TRAV_149
10
52.830295
20
1050.000000
30
674.761692
0
VERTEX
8
TRAV_149
10
51.965155
20
1050.000000
30
675.425537
0
VERTEX
8
TRAV_149
10
51.161165
20
1050.000000
30
676.162258
0
VERTEX
8
TRAV_149
10
50.424444
20
1050.000000
30
676.966248
0
VERTEX
8
TRAV_149
10
49.760599
20
1050.000000
30
677.831387
0
VERTEX
8
TRAV_149
10
49.174682
20
1050.000000
30
678.751093
0
VERTEX
8
TRAV_149
10
48.671153
20
1050.000000
30
679.718364
0
VERTEX
8
TRAV_149
10
48.253842
20
1050.000000
30
680.725841
0
VERTEX
8
TRAV_149
10
47.925927
20
1050.000000
30
681.765855
0
VERTEX
8
TRAV_149
10
47.689903
20
1050.000000
30
682.830490
0
VERTEX
8
TRAV_149
10
47.547566
20
1050.000000
30
683.911646
0
VERTEX
8
TRAV_149
10
47.500000
20
1050.000000
30
685.001093
0
VERTEX
8
TRAV_149
10
47.547566
20
1050.000000
30
686.090539
0
VERTEX
8
TRAV_149
10
47.689903
20
1050.000000
30
687.171695
0
VERTEX
8
TRAV_149
10
47.925927
20
1050.000000
30
688.236331
0
VERTEX
8
TRAV_149
10
48.253842
20
1050.000000
30
689.276344
0
VERTEX
8
TRAV_149
10
48.671153
20
1050.000000
30
690.283821
0
VERTEX
8
TRAV_149
10
49.174682
20
1050.000000
30
691.251093
0
VERTEX
8
TRAV_149
10
49.760599
20
1050.000000
30
692.170798
0
VERTEX
8
TRAV_149
10
50.424444
20
1050.000000
30
693.035938
0
VERTEX
8
TRAV_149
10
51.161165
20
1050.000000
30
693.839927
0
VERTEX
8
TRAV_149
10
51.965155
20
1050.000000
30
694.576648
0
VERTEX
8
TRAV_149
10
52.830295
20
1050.000000
30
695.240493
0
VERTEX
8
TRAV_149
10
53.750000
20
1050.000000
30
695.826410
0
VERTEX
8
TRAV_149
10
54.717272
20
1050.000000
30
696.329940
0
VERTEX
8
TRAV_149
10
55.724748
20
1050.000000
30
696.747250
0
VERTEX
8
TRAV_149
10
56.764762
20
1050.000000
30
697.075165
0
VERTEX
8
TRAV_149
10
57.829398
20
1050.000000
30
697.311190
0
VERTEX
8
TRAV_149
10
58.910553
20
1050.000000
30
697.453526
0
VERTEX
8
TRAV_149
10
60.000000
20
1050.000000
30
697.501093
0
VERTEX
8
TRAV_149
10
61.089447
20
1050.000000
30
697.453526
0
VERTEX
8
TRAV_149
10
62.170602
20
1050.000000
30
697.311190
0
VERTEX
8
TRAV_149
10
63.235238
20
1050.000000
30
697.075165
0
VERTEX
8
TRAV_149
10
64.275252
20
1050.000000
30
696.747250
0
VERTEX
8
TRAV_149
10
65.282728
20
1050.000000
30
696.329940
0
VERTEX
8
TRAV_149
10
66.250000
20
1050.000000
30
695.826410
0
VERTEX
8
TRAV_149
10
67.169705
20
1050.000000
30
695.240493
0
VERTEX
8
TRAV_149
10
68.034845
20
1050.000000
30
694.576648
0
VERTEX
8
TRAV_149
10
68.838835
20
1050.000000
30
693.839927
0
VERTEX
8
TRAV_149
10
69.575556
20
1050.000000
30
693.035938
0
VERTEX
8
TRAV_149
10
70.239401
20
1050.000000
30
692.170798
0
VERTEX
8
TRAV_149
10
70.825318
20
1050.000000
30
691.251093
0
VERTEX
8
TRAV_149
10
71.328847
20
1050.000000
30
690.283821
0
VERTEX
8
TRAV_149
10
71.746158
20
1050.000000
30
689.276344
0
VERTEX
8
TRAV_149
10
72.074073
20
1050.000000
30
688.236331
0
VERTEX
8
TRAV_149
10
72.310097
20
1050.000000
30
687.171695
0
VERTEX
8
TRAV_149
10
72.452434
20
1050.000000
30
686.090539
0
SEQEND
0
POLYLINE
8
TRAV_149
62
0
66
1
70
9
0
VERTEX
8
TRAV_149
10
1642.500000
20
0.000000
30
685.001093
0
VERTEX
8
TRAV_149
10
1642.452434
20
0.000000
30
683.911646
0
VERTEX
8
TRAV_149
10
1642.452434
20
15.000000
30
683.911646
0
VERTEX
8
TRAV_149
10
1642.500000
20
15.000000
30
685.001093
0
SEQEND
0
POLYLINE
8
TRAV_149
62
0
66
1
70
9
0
VERTEX
8
TRAV_149
10
1642.452434
20
0.000000
30
683.911646
0
VERTEX
8
TRAV_149
10
1642.310097
20
0.000000
30
682.830490
0
VERTEX
8
TRAV_149
10
1642.310097
20
15.000000
30
682.830490
0
VERTEX
8
TRAV_149
10
1642.452434
20
15.000000
30
683.911646
0
SEQEND
0
POLYLINE
8
TRAV_149
62
0
66
1
70
9
0
VERTEX
8
TRAV_149
10
1642.310097
20
0.000000
30
682.830490
0
VERTEX
8
TRAV_149
10
1642.074073
20
0.000000
30
681.765855
0
VERTEX
8
TRAV_149
10
1642.074073
20
15.000000
30
681.765855
0
VERTEX
8
TRAV_149
10
1642.310097
20
15.000000
30
682.830490
0
SEQEND
0
POLYLINE
8
TRAV_149
62
0
66
1
70
9
0
VERTEX
8
TRAV_149
10
1642.074073
20
0.000000
30
681.765855
0
VERTEX
8
TRAV_149
10
1641.746158
20
0.000000
30
680.725841
0
VERTEX
8
TRAV_149
10
1641.746158
20
15.000000
30
680.725841
0
VERTEX
8
TRAV_149
10
1642.074073
20
15.000000
30
681.765855
0
SEQEND
0
POLYLINE
8
TRAV_149
62
0
66
1
70
9
0
VERTEX
8
TRAV_149
10
1641.746158
20
0.000000
30
680.725841
0
VERTEX
8
TRAV_149
10
1641.328847
20
0.000000
30
679.718364
0
VERTEX
8
TRAV_149
10
1641.328847
20
15.000000
30
679.718364
0
VERTEX
8
TRAV_149
10
1641.746158
20
15.000000
30
680.725841
0
SEQEND
0
POLYLINE
8
TRAV_149
62
0
66
1
70
9
0
VERTEX
8
TRAV_149
10
1641.328847
20
0.000000
30
679.718364
0
VERTEX
8
TRAV_149
10
1640.825318
20
0.000000
30
678.751093
0
VERTEX
8
TRAV_149
10
1640.825318
20
15.000000
30
678.751093
0
VERTEX
8
TRAV_149
10
1641.328847
20
15.000000
30
679.718364
0
SEQEND
0
POLYLINE
8
TRAV_149
62
0
66
1
70
9
0
VERTEX
8
TRAV_149
10
1640.825318
20
0.000000
30
678.751093
0
VERTEX
8
TRAV_149
10
1640.239401
20
0.000000
30
677.831387
0
VERTEX
8
TRAV_149
10
1640.239401
20
15.000000
30
677.831387
0
VERTEX
8
TRAV_149
10
1640.825318
20
15.000000
30
678.751093
0
SEQEND
0
POLYLINE
8
TRAV_149
62
0
66
1
70
9
0
VERTEX
8
TRAV_149
10
1640.239401
20
0.000000
30
677.831387
0
VERTEX
8
TRAV_149
10
1639.575556
20
0.000000
30
676.966248
0
VERTEX
8
TRAV_149
10
1639.575556
20
15.000000
30
676.966248
0
VERTEX
8
TRAV_149
10
1640.239401
20
15.000000
30
677.831387
0
SEQEND
0
POLYLINE
8
TRAV_149
62
0
66
1
70
9
0
VERTEX
8
TRAV_149
10
1639.575556
20
0.000000
30
676.966248
0
VERTEX
8
TRAV_149
10
1638.838835
20
0.000000
30
676.162258
0
VERTEX
8
TRAV_149
10
1638.838835
20
15.000000
30
676.162258
0
VERTEX
8
TRAV_149
10
1639.575556
20
15.000000
30
676.966248
0
SEQEND
0
POLYLINE
8
TRAV_149
62
0
66
1
70
9
0
VERTEX
8
TRAV_149
10
1638.838835
20
0.000000
30
676.162258
0
VERTEX
8
TRAV_149
10
1638.034845
20
0.000000
30
675.425537
0
VERTEX
8
TRAV_149
10
1638.034845
20
15.000000
30
675.425537
0
VERTEX
8
TRAV_149
10
1638.838835
20
15.000000
30
676.162258
0
SEQEND
0
POLYLINE
8
TRAV_149
62
0
66
1
70
9
0
VERTEX
8
TRAV_149
10
1638.034845
20
0.000000
30
675.425537
0
VERTEX
8
TRAV_149
10
1637.169705
20
0.000000
30
674.761692
0
VERTEX
8
TRAV_149
10
1637.169705
20
15.000000
30
674.761692
0
VERTEX
8
TRAV_149
10
1638.034845
20
15.000000
30
675.425537
0
SEQEND
0
POLYLINE
8
TRAV_149
62
0
66
1
70
9
0
VERTEX
8
TRAV_149
10
1637.169705
20
0.000000
30
674.761692
0
VERTEX
8
TRAV_149
10
1636.250000
20
0.000000
30
674.175775
0
VERTEX
8
TRAV_149
10
1636.250000
20
15.000000
30
674.175775
0
VERTEX
8
TRAV_149
10
1637.169705
20
15.000000
30
674.761692
0
SEQEND
0
POLYLINE
8
TRAV_149
62
0
66
1
70
9
0
VERTEX
8
TRAV_149
10
1636.250000
20
0.000000
30
674.175775
0
VERTEX
8
TRAV_149
10
1635.282728
20
0.000000
30
673.672245
0
VERTEX
8
TRAV_149
10
1635.282728
20
15.000000
30
673.672245
0
VERTEX
8
TRAV_149
10
1636.250000
20
15.000000
30
674.175775
0
SEQEND
0
POLYLINE
8
TRAV_149
62
0
66
1
70
9
0
VERTEX
8
TRAV_149
10
1635.282728
20
0.000000
30
673.672245
0
VERTEX
8
TRAV_149
10
1634.275252
20
0.000000
30
673.254935
0
VERTEX
8
TRAV_149
10
1634.275252
20
15.000000
30
673.254935
0
VERTEX
8
TRAV_149
10
1635.282728
20
15.000000
30
673.672245
0
SEQEND
0
POLYLINE
8
TRAV_149
62
0
66
1
70
9
0
VERTEX
8
TRAV_149
10
1634.275252
20
0.000000
30
673.254935
0
VERTEX
8
TRAV_149
10
1633.235238
20
0.000000
30
672.927020
0
VERTEX
8
TRAV_149
10
1633.235238
20
15.000000
30
672.927020
0
VERTEX
8
TRAV_149
10
1634.275252
20
15.000000
30
673.254935
0
SEQEND
0
POLYLINE
8
TRAV_149
62
0
66
1
70
9
0
VERTEX
8
TRAV_149
10
1633.235238
20
0.000000
30
672.927020
0
VERTEX
8
TRAV_149
10
1632.170602
20
0.000000
30
672.690996
0
VERTEX
8
TRAV_149
10
1632.170602
20
15.000000
30
672.690996
0
VERTEX
8
TRAV_149
10
1633.235238
20
15.000000
30
672.927020
0
SEQEND
0
POLYLINE
8
TRAV_149
62
0
66
1
70
9
0
VERTEX
8
TRAV_149
10
1632.170602
20
0.000000
30
672.690996
0
VERTEX
8
TRAV_149
10
1631.089447
20
0.000000
30
672.548659
0
VERTEX
8
TRAV_149
10
1631.089447
20
15.000000
30
672.548659
0
VERTEX
8
TRAV_149
10
1632.170602
20
15.000000
30
672.690996
0
SEQEND
0
POLYLINE
8
TRAV_149
62
0
66
1
70
9
0
VERTEX
8
TRAV_149
10
1631.089447
20
0.000000
30
672.548659
0
VERTEX
8
TRAV_149
10
1630.000000
20
0.000000
30
672.501093
0
VERTEX
8
TRAV_149
10
1630.000000
20
15.000000
30
672.501093
0
VERTEX
8
TRAV_149
10
1631.089447
20
15.000000
30
672.548659
0
SEQEND
0
POLYLINE
8
TRAV_149
62
0
66
1
70
9
0
VERTEX
8
TRAV_149
10
1630.000000
20
0.000000
30
672.501093
0
VERTEX
8
TRAV_149
10
1628.910553
20
0.000000
30
672.548659
0
VERTEX
8
TRAV_149
10
1628.910553
20
15.000000
30
672.548659
0
VERTEX
8
TRAV_149
10
1630.000000
20
15.000000
30
672.501093
0
SEQEND
0
POLYLINE
8
TRAV_149
62
0
66
1
70
9
0
VERTEX
8
TRAV_149
10
1628.910553
20
0.000000
30
672.548659
0
VERTEX
8
TRAV_149
10
1627.829398
20
0.000000
30
672.690996
0
VERTEX
8
TRAV_149
10
1627.829398
20
15.000000
30
672.690996
0
VERTEX
8
TRAV_149
10
1628.910553
20
15.000000
30
672.548659
0
SEQEND
0
POLYLINE
8
TRAV_149
62
0
66
1
70
9
0
VERTEX
8
TRAV_149
10
1627.829398
20
0.000000
30
672.690996
0
VERTEX
8
TRAV_149
10
1626.764762
20
0.000000
30
672.927020
0
VERTEX
8
TRAV_149
10
1626.764762
20
15.000000
30
672.927020
0
VERTEX
8
TRAV_149
10
1627.829398
20
15.000000
30
672.690996
0
SEQEND
0
POLYLINE
8
TRAV_149
62
0
66
1
70
9
0
VERTEX
8
TRAV_149
10
1626.764762
20
0.000000
30
672.927020
0
VERTEX
8
TRAV_149
10
1625.724748
20
0.000000
30
673.254935
0
VERTEX
8
TRAV_149
10
1625.724748
20
15.000000
30
673.254935
0
VERTEX
8
TRAV_149
10
1626.764762
20
15.000000
30
672.927020
0
SEQEND
0
POLYLINE
8
TRAV_149
62
0
66
1
70
9
0
VERTEX
8
TRAV_149
10
1625.724748
20
0.000000
30
673.254935
0
VERTEX
8
TRAV_149
10
1624.717272
20
0.000000
30
673.672245
0
VERTEX
8
TRAV_149
10
1624.717272
20
15.000000
30
673.672245
0
VERTEX
8
TRAV_149
10
1625.724748
20
15.000000
30
673.254935
0
SEQEND
0
POLYLINE
8
TRAV_149
62
0
66
1
70
9
0
VERTEX
8
TRAV_149
10
1624.717272
20
0.000000
30
673.672245
0
VERTEX
8
TRAV_149
10
1623.750000
20
0.000000
30
674.175775
0
VERTEX
8
TRAV_149
10
1623.750000
20
15.000000
30
674.175775
0
VERTEX
8
TRAV_149
10
1624.717272
20
15.000000
30
673.672245
0
SEQEND
0
POLYLINE
8
TRAV_149
62
0
66
1
70
9
0
VERTEX
8
TRAV_149
10
1623.750000
20
0.000000
30
674.175775
0
VERTEX
8
TRAV_149
10
1622.830295
20
0.000000
30
674.761692
0
VERTEX
8
TRAV_149
10
1622.830295
20
15.000000
30
674.761692
0
VERTEX
8
TRAV_149
10
1623.750000
20
15.000000
30
674.175775
0
SEQEND
0
POLYLINE
8
TRAV_149
62
0
66
1
70
9
0
VERTEX
8
TRAV_149
10
1622.830295
20
0.000000
30
674.761692
0
VERTEX
8
TRAV_149
10
1621.965155
20
0.000000
30
675.425537
0
VERTEX
8
TRAV_149
10
1621.965155
20
15.000000
30
675.425537
0
VERTEX
8
TRAV_149
10
1622.830295
20
15.000000
30
674.761692
0
SEQEND
0
POLYLINE
8
TRAV_149
62
0
66
1
70
9
0
VERTEX
8
TRAV_149
10
1621.965155
20
0.000000
30
675.425537
0
VERTEX
8
TRAV_149
10
1621.161165
20
0.000000
30
676.162258
0
VERTEX
8
TRAV_149
10
1621.161165
20
15.000000
30
676.162258
0
VERTEX
8
TRAV_149
10
1621.965155
20
15.000000
30
675.425537
0
SEQEND
0
POLYLINE
8
TRAV_149
62
0
66
1
70
9
0
VERTEX
8
TRAV_149
10
1621.161165
20
0.000000
30
676.162258
0
VERTEX
8
TRAV_149
10
1620.424444
20
0.000000
30
676.966248
0
VERTEX
8
TRAV_149
10
1620.424444
20
15.000000
30
676.966248
0
VERTEX
8
TRAV_149
10
1621.161165
20
15.000000
30
676.162258
0
SEQEND
0
POLYLINE
8
TRAV_149
62
0
66
1
70
9
0
VERTEX
8
TRAV_149
10
1620.424444
20
0.000000
30
676.966248
0
VERTEX
8
TRAV_149
10
1619.760599
20
0.000000
30
677.831387
0
VERTEX
8
TRAV_149
10
1619.760599
20
15.000000
30
677.831387
0
VERTEX
8
TRAV_149
10
1620.424444
20
15.000000
30
676.966248
0
SEQEND
0
POLYLINE
8
TRAV_149
62
0
66
1
70
9
0
VERTEX
8
TRAV_149
10
1619.760599
20
0.000000
30
677.831387
0
VERTEX
8
TRAV_149
10
1619.174682
20
0.000000
30
678.751093
0
VERTEX
8
TRAV_149
10
1619.174682
20
15.000000
30
678.751093
0
VERTEX
8
TRAV_149
10
1619.760599
20
15.000000
30
677.831387
0
SEQEND
0
POLYLINE
8
TRAV_149
62
0
66
1
70
9
0
VERTEX
8
TRAV_149
10
1619.174682
20
0.000000
30
678.751093
0
VERTEX
8
TRAV_149
10
1618.671153
20
0.000000
30
679.718364
0
VERTEX
8
TRAV_149
10
1618.671153
20
15.000000
30
679.718364
0
VERTEX
8
TRAV_149
10
1619.174682
20
15.000000
30
678.751093
0
SEQEND
0
POLYLINE
8
TRAV_149
62
0
66
1
70
9
0
VERTEX
8
TRAV_149
10
1618.671153
20
0.000000
30
679.718364
0
VERTEX
8
TRAV_149
10
1618.253842
20
0.000000
30
680.725841
0
VERTEX
8
TRAV_149
10
1618.253842
20
15.000000
30
680.725841
0
VERTEX
8
TRAV_149
10
1618.671153
20
15.000000
30
679.718364
0
SEQEND
0
POLYLINE
8
TRAV_149
62
0
66
1
70
9
0
VERTEX
8
TRAV_149
10
1618.253842
20
0.000000
30
680.725841
0
VERTEX
8
TRAV_149
10
1617.925927
20
0.000000
30
681.765855
0
VERTEX
8
TRAV_149
10
1617.925927
20
15.000000
30
681.765855
0
VERTEX
8
TRAV_149
10
1618.253842
20
15.000000
30
680.725841
0
SEQEND
0
POLYLINE
8
TRAV_149
62
0
66
1
70
9
0
VERTEX
8
TRAV_149
10
1617.925927
20
0.000000
30
681.765855
0
VERTEX
8
TRAV_149
10
1617.689903
20
0.000000
30
682.830490
0
VERTEX
8
TRAV_149
10
1617.689903
20
15.000000
30
682.830490
0
VERTEX
8
TRAV_149
10
1617.925927
20
15.000000
30
681.765855
0
SEQEND
0
POLYLINE
8
TRAV_149
62
0
66
1
70
9
0
VERTEX
8
TRAV_149
10
1617.689903
20
0.000000
30
682.830490
0
VERTEX
8
TRAV_149
10
1617.547566
20
0.000000
30
683.911646
0
VERTEX
8
TRAV_149
10
1617.547566
20
15.000000
30
683.911646
0
VERTEX
8
TRAV_149
10
1617.689903
20
15.000000
30
682.830490
0
SEQEND
0
POLYLINE
8
TRAV_149
62
0
66
1
70
9
0
VERTEX
8
TRAV_149
10
1617.547566
20
0.000000
30
683.911646
0
VERTEX
8
TRAV_149
10
1617.500000
20
0.000000
30
685.001093
0
VERTEX
8
TRAV_149
10
1617.500000
20
15.000000
30
685.001093
0
VERTEX
8
TRAV_149
10
1617.547566
20
15.000000
30
683.911646
0
SEQEND
0
POLYLINE
8
TRAV_149
62
0
66
1
70
9
0
VERTEX
8
TRAV_149
10
1617.500000
20
0.000000
30
685.001093
0
VERTEX
8
TRAV_149
10
1617.547566
20
0.000000
30
686.090539
0
VERTEX
8
TRAV_149
10
1617.547566
20
15.000000
30
686.090539
0
VERTEX
8
TRAV_149
10
1617.500000
20
15.000000
30
685.001093
0
SEQEND
0
POLYLINE
8
TRAV_149
62
0
66
1
70
9
0
VERTEX
8
TRAV_149
10
1617.547566
20
0.000000
30
686.090539
0
VERTEX
8
TRAV_149
10
1617.689903
20
0.000000
30
687.171695
0
VERTEX
8
TRAV_149
10
1617.689903
20
15.000000
30
687.171695
0
VERTEX
8
TRAV_149
10
1617.547566
20
15.000000
30
686.090539
0
SEQEND
0
POLYLINE
8
TRAV_149
62
0
66
1
70
9
0
VERTEX
8
TRAV_149
10
1617.689903
20
0.000000
30
687.171695
0
VERTEX
8
TRAV_149
10
1617.925927
20
0.000000
30
688.236331
0
VERTEX
8
TRAV_149
10
1617.925927
20
15.000000
30
688.236331
0
VERTEX
8
TRAV_149
10
1617.689903
20
15.000000
30
687.171695
0
SEQEND
0
POLYLINE
8
TRAV_149
62
0
66
1
70
9
0
VERTEX
8
TRAV_149
10
1617.925927
20
0.000000
30
688.236331
0
VERTEX
8
TRAV_149
10
1618.253842
20
0.000000
30
689.276344
0
VERTEX
8
TRAV_149
10
1618.253842
20
15.000000
30
689.276344
0
VERTEX
8
TRAV_149
10
1617.925927
20
15.000000
30
688.236331
0
SEQEND
0
POLYLINE
8
TRAV_149
62
0
66
1
70
9
0
VERTEX
8
TRAV_149
10
1618.253842
20
0.000000
30
689.276344
0
VERTEX
8
TRAV_149
10
1618.671153
20
0.000000
30
690.283821
0
VERTEX
8
TRAV_149
10
1618.671153
20
15.000000
30
690.283821
0
VERTEX
8
TRAV_149
10
1618.253842
20
15.000000
30
689.276344
0
SEQEND
0
POLYLINE
8
TRAV_149
62
0
66
1
70
9
0
VERTEX
8
TRAV_149
10
1618.671153
20
0.000000
30
690.283821
0
VERTEX
8
TRAV_149
10
1619.174682
20
0.000000
30
691.251093
0
VERTEX
8
TRAV_149
10
1619.174682
20
15.000000
30
691.251093
0
VERTEX
8
TRAV_149
10
1618.671153
20
15.000000
30
690.283821
0
SEQEND
0
POLYLINE
8
TRAV_149
62
0
66
1
70
9
0
VERTEX
8
TRAV_149
10
1619.174682
20
0.000000
30
691.251093
0
VERTEX
8
TRAV_149
10
1619.760599
20
0.000000
30
692.170798
0
VERTEX
8
TRAV_149
10
1619.760599
20
15.000000
30
692.170798
0
VERTEX
8
TRAV_149
10
1619.174682
20
15.000000
30
691.251093
0
SEQEND
0
POLYLINE
8
TRAV_149
62
0
66
1
70
9
0
VERTEX
8
TRAV_149
10
1619.760599
20
0.000000
30
692.170798
0
VERTEX
8
TRAV_149
10
1620.424444
20
0.000000
30
693.035938
0
VERTEX
8
TRAV_149
10
1620.424444
20
15.000000
30
693.035938
0
VERTEX
8
TRAV_149
10
1619.760599
20
15.000000
30
692.170798
0
SEQEND
0
POLYLINE
8
TRAV_149
62
0
66
1
70
9
0
VERTEX
8
TRAV_149
10
1620.424444
20
0.000000
30
693.035938
0
VERTEX
8
TRAV_149
10
1621.161165
20
0.000000
30
693.839927
0
VERTEX
8
TRAV_149
10
1621.161165
20
15.000000
30
693.839927
0
VERTEX
8
TRAV_149
10
1620.424444
20
15.000000
30
693.035938
0
SEQEND
0
POLYLINE
8
TRAV_149
62
0
66
1
70
9
0
VERTEX
8
TRAV_149
10
1621.161165
20
0.000000
30
693.839927
0
VERTEX
8
TRAV_149
10
1621.965155
20
0.000000
30
694.576648
0
VERTEX
8
TRAV_149
10
1621.965155
20
15.000000
30
694.576648
0
VERTEX
8
TRAV_149
10
1621.161165
20
15.000000
30
693.839927
0
SEQEND
0
POLYLINE
8
TRAV_149
62
0
66
1
70
9
0
VERTEX
8
TRAV_149
10
1621.965155
20
0.000000
30
694.576648
0
VERTEX
8
TRAV_149
10
1622.830295
20
0.000000
30
695.240493
0
VERTEX
8
TRAV_149
10
1622.830295
20
15.000000
30
695.240493
0
VERTEX
8
TRAV_149
10
1621.965155
20
15.000000
30
694.576648
0
SEQEND
0
POLYLINE
8
TRAV_149
62
0
66
1
70
9
0
VERTEX
8
TRAV_149
10
1622.830295
20
0.000000
30
695.240493
0
VERTEX
8
TRAV_149
10
1623.750000
20
0.000000
30
695.826410
0
VERTEX
8
TRAV_149
10
1623.750000
20
15.000000
30
695.826410
0
VERTEX
8
TRAV_149
10
1622.830295
20
15.000000
30
695.240493
0
SEQEND
0
POLYLINE
8
TRAV_149
62
0
66
1
70
9
0
VERTEX
8
TRAV_149
10
1623.750000
20
0.000000
30
695.826410
0
VERTEX
8
TRAV_149
10
1624.717272
20
0.000000
30
696.329940
0
VERTEX
8
TRAV_149
10
1624.717272
20
15.000000
30
696.329940
0
VERTEX
8
TRAV_149
10
1623.750000
20
15.000000
30
695.826410
0
SEQEND
0
POLYLINE
8
TRAV_149
62
0
66
1
70
9
0
VERTEX
8
TRAV_149
10
1624.717272
20
0.000000
30
696.329940
0
VERTEX
8
TRAV_149
10
1625.724748
20
0.000000
30
696.747250
0
VERTEX
8
TRAV_149
10
1625.724748
20
15.000000
30
696.747250
0
VERTEX
8
TRAV_149
10
1624.717272
20
15.000000
30
696.329940
0
SEQEND
0
POLYLINE
8
TRAV_149
62
0
66
1
70
9
0
VERTEX
8
TRAV_149
10
1625.724748
20
0.000000
30
696.747250
0
VERTEX
8
TRAV_149
10
1626.764762
20
0.000000
30
697.075165
0
VERTEX
8
TRAV_149
10
1626.764762
20
15.000000
30
697.075165
0
VERTEX
8
TRAV_149
10
1625.724748
20
15.000000
30
696.747250
0
SEQEND
0
POLYLINE
8
TRAV_149
62
0
66
1
70
9
0
VERTEX
8
TRAV_149
10
1626.764762
20
0.000000
30
697.075165
0
VERTEX
8
TRAV_149
10
1627.829398
20
0.000000
30
697.311190
0
VERTEX
8
TRAV_149
10
1627.829398
20
15.000000
30
697.311190
0
VERTEX
8
TRAV_149
10
1626.764762
20
15.000000
30
697.075165
0
SEQEND
0
POLYLINE
8
TRAV_149
62
0
66
1
70
9
0
VERTEX
8
TRAV_149
10
1627.829398
20
0.000000
30
697.311190
0
VERTEX
8
TRAV_149
10
1628.910553
20
0.000000
30
697.453526
0
VERTEX
8
TRAV_149
10
1628.910553
20
15.000000
30
697.453526
0
VERTEX
8
TRAV_149
10
1627.829398
20
15.000000
30
697.311190
0
SEQEND
0
POLYLINE
8
TRAV_149
62
0
66
1
70
9
0
VERTEX
8
TRAV_149
10
1628.910553
20
0.000000
30
697.453526
0
VERTEX
8
TRAV_149
10
1630.000000
20
0.000000
30
697.501093
0
VERTEX
8
TRAV_149
10
1630.000000
20
15.000000
30
697.501093
0
VERTEX
8
TRAV_149
10
1628.910553
20
15.000000
30
697.453526
0
SEQEND
0
POLYLINE
8
TRAV_149
62
0
66
1
70
9
0
VERTEX
8
TRAV_149
10
1630.000000
20
0.000000
30
697.501093
0
VERTEX
8
TRAV_149
10
1631.089447
20
0.000000
30
697.453526
0
VERTEX
8
TRAV_149
10
1631.089447
20
15.000000
30
697.453526
0
VERTEX
8
TRAV_149
10
1630.000000
20
15.000000
30
697.501093
0
SEQEND
0
POLYLINE
8
TRAV_149
62
0
66
1
70
9
0
VERTEX
8
TRAV_149
10
1631.089447
20
0.000000
30
697.453526
0
VERTEX
8
TRAV_149
10
1632.170602
20
0.000000
30
697.311190
0
VERTEX
8
TRAV_149
10
1632.170602
20
15.000000
30
697.311190
0
VERTEX
8
TRAV_149
10
1631.089447
20
15.000000
30
697.453526
0
SEQEND
0
POLYLINE
8
TRAV_149
62
0
66
1
70
9
0
VERTEX
8
TRAV_149
10
1632.170602
20
0.000000
30
697.311190
0
VERTEX
8
TRAV_149
10
1633.235238
20
0.000000
30
697.075165
0
VERTEX
8
TRAV_149
10
1633.235238
20
15.000000
30
697.075165
0
VERTEX
8
TRAV_149
10
1632.170602
20
15.000000
30
697.311190
0
SEQEND
0
POLYLINE
8
TRAV_149
62
0
66
1
70
9
0
VERTEX
8
TRAV_149
10
1633.235238
20
0.000000
30
697.075165
0
VERTEX
8
TRAV_149
10
1634.275252
20
0.000000
30
696.747250
0
VERTEX
8
TRAV_149
10
1634.275252
20
15.000000
30
696.747250
0
VERTEX
8
TRAV_149
10
1633.235238
20
15.000000
30
697.075165
0
SEQEND
0
POLYLINE
8
TRAV_149
62
0
66
1
70
9
0
VERTEX
8
TRAV_149
10
1634.275252
20
0.000000
30
696.747250
0
VERTEX
8
TRAV_149
10
1635.282728
20
0.000000
30
696.329940
0
VERTEX
8
TRAV_149
10
1635.282728
20
15.000000
30
696.329940
0
VERTEX
8
TRAV_149
10
1634.275252
20
15.000000
30
696.747250
0
SEQEND
0
POLYLINE
8
TRAV_149
62
0
66
1
70
9
0
VERTEX
8
TRAV_149
10
1635.282728
20
0.000000
30
696.329940
0
VERTEX
8
TRAV_149
10
1636.250000
20
0.000000
30
695.826410
0
VERTEX
8
TRAV_149
10
1636.250000
20
15.000000
30
695.826410
0
VERTEX
8
TRAV_149
10
1635.282728
20
15.000000
30
696.329940
0
SEQEND
0
POLYLINE
8
TRAV_149
62
0
66
1
70
9
0
VERTEX
8
TRAV_149
10
1636.250000
20
0.000000
30
695.826410
0
VERTEX
8
TRAV_149
10
1637.169705
20
0.000000
30
695.240493
0
VERTEX
8
TRAV_149
10
1637.169705
20
15.000000
30
695.240493
0
VERTEX
8
TRAV_149
10
1636.250000
20
15.000000
30
695.826410
0
SEQEND
0
POLYLINE
8
TRAV_149
62
0
66
1
70
9
0
VERTEX
8
TRAV_149
10
1637.169705
20
0.000000
30
695.240493
0
VERTEX
8
TRAV_149
10
1638.034845
20
0.000000
30
694.576648
0
VERTEX
8
TRAV_149
10
1638.034845
20
15.000000
30
694.576648
0
VERTEX
8
TRAV_149
10
1637.169705
20
15.000000
30
695.240493
0
SEQEND
0
POLYLINE
8
TRAV_149
62
0
66
1
70
9
0
VERTEX
8
TRAV_149
10
1638.034845
20
0.000000
30
694.576648
0
VERTEX
8
TRAV_149
10
1638.838835
20
0.000000
30
693.839927
0
VERTEX
8
TRAV_149
10
1638.838835
20
15.000000
30
693.839927
0
VERTEX
8
TRAV_149
10
1638.034845
20
15.000000
30
694.576648
0
SEQEND
0
POLYLINE
8
TRAV_149
62
0
66
1
70
9
0
VERTEX
8
TRAV_149
10
1638.838835
20
0.000000
30
693.839927
0
VERTEX
8
TRAV_149
10
1639.575556
20
0.000000
30
693.035938
0
VERTEX
8
TRAV_149
10
1639.575556
20
15.000000
30
693.035938
0
VERTEX
8
TRAV_149
10
1638.838835
20
15.000000
30
693.839927
0
SEQEND
0
POLYLINE
8
TRAV_149
62
0
66
1
70
9
0
VERTEX
8
TRAV_149
10
1639.575556
20
0.000000
30
693.035938
0
VERTEX
8
TRAV_149
10
1640.239401
20
0.000000
30
692.170798
0
VERTEX
8
TRAV_149
10
1640.239401
20
15.000000
30
692.170798
0
VERTEX
8
TRAV_149
10
1639.575556
20
15.000000
30
693.035938
0
SEQEND
0
POLYLINE
8
TRAV_149
62
0
66
1
70
9
0
VERTEX
8
TRAV_149
10
1640.239401
20
0.000000
30
692.170798
0
VERTEX
8
TRAV_149
10
1640.825318
20
0.000000
30
691.251093
0
VERTEX
8
TRAV_149
10
1640.825318
20
15.000000
30
691.251093
0
VERTEX
8
TRAV_149
10
1640.239401
20
15.000000
30
692.170798
0
SEQEND
0
POLYLINE
8
TRAV_149
62
0
66
1
70
9
0
VERTEX
8
TRAV_149
10
1640.825318
20
0.000000
30
691.251093
0
VERTEX
8
TRAV_149
10
1641.328847
20
0.000000
30
690.283821
0
VERTEX
8
TRAV_149
10
1641.328847
20
15.000000
30
690.283821
0
VERTEX
8
TRAV_149
10
1640.825318
20
15.000000
30
691.251093
0
SEQEND
0
POLYLINE
8
TRAV_149
62
0
66
1
70
9
0
VERTEX
8
TRAV_149
10
1641.328847
20
0.000000
30
690.283821
0
VERTEX
8
TRAV_149
10
1641.746158
20
0.000000
30
689.276344
0
VERTEX
8
TRAV_149
10
1641.746158
20
15.000000
30
689.276344
0
VERTEX
8
TRAV_149
10
1641.328847
20
15.000000
30
690.283821
0
SEQEND
0
POLYLINE
8
TRAV_149
62
0
66
1
70
9
0
VERTEX
8
TRAV_149
10
1641.746158
20
0.000000
30
689.276344
0
VERTEX
8
TRAV_149
10
1642.074073
20
0.000000
30
688.236331
0
VERTEX
8
TRAV_149
10
1642.074073
20
15.000000
30
688.236331
0
VERTEX
8
TRAV_149
10
1641.746158
20
15.000000
30
689.276344
0
SEQEND
0
POLYLINE
8
TRAV_149
62
0
66
1
70
9
0
VERTEX
8
TRAV_149
10
1642.074073
20
0.000000
30
688.236331
0
VERTEX
8
TRAV_149
10
1642.310097
20
0.000000
30
687.171695
0
VERTEX
8
TRAV_149
10
1642.310097
20
15.000000
30
687.171695
0
VERTEX
8
TRAV_149
10
1642.074073
20
15.000000
30
688.236331
0
SEQEND
0
POLYLINE
8
TRAV_149
62
0
66
1
70
9
0
VERTEX
8
TRAV_149
10
1642.310097
20
0.000000
30
687.171695
0
VERTEX
8
TRAV_149
10
1642.452434
20
0.000000
30
686.090539
0
VERTEX
8
TRAV_149
10
1642.452434
20
15.000000
30
686.090539
0
VERTEX
8
TRAV_149
10
1642.310097
20
15.000000
30
687.171695
0
SEQEND
0
POLYLINE
8
TRAV_149
62
0
66
1
70
9
0
VERTEX
8
TRAV_149
10
1642.452434
20
0.000000
30
686.090539
0
VERTEX
8
TRAV_149
10
1642.500000
20
0.000000
30
685.001093
0
VERTEX
8
TRAV_149
10
1642.500000
20
15.000000
30
685.001093
0
VERTEX
8
TRAV_149
10
1642.452434
20
15.000000
30
686.090539
0
SEQEND
0
POLYLINE
8
TRAV_149
62
0
66
1
70
9
0
VERTEX
8
TRAV_149
10
1642.452434
20
0.000000
30
686.090539
0
VERTEX
8
TRAV_149
10
1642.310097
20
0.000000
30
687.171695
0
VERTEX
8
TRAV_149
10
1642.074073
20
0.000000
30
688.236331
0
VERTEX
8
TRAV_149
10
1641.746158
20
0.000000
30
689.276344
0
VERTEX
8
TRAV_149
10
1641.328847
20
0.000000
30
690.283821
0
VERTEX
8
TRAV_149
10
1640.825318
20
0.000000
30
691.251093
0
VERTEX
8
TRAV_149
10
1640.239401
20
0.000000
30
692.170798
0
VERTEX
8
TRAV_149
10
1639.575556
20
0.000000
30
693.035938
0
VERTEX
8
TRAV_149
10
1638.838835
20
0.000000
30
693.839927
0
VERTEX
8
TRAV_149
10
1638.034845
20
0.000000
30
694.576648
0
VERTEX
8
TRAV_149
10
1637.169705
20
0.000000
30
695.240493
0
VERTEX
8
TRAV_149
10
1636.250000
20
0.000000
30
695.826410
0
VERTEX
8
TRAV_149
10
1635.282728
20
0.000000
30
696.329940
0
VERTEX
8
TRAV_149
10
1634.275252
20
0.000000
30
696.747250
0
VERTEX
8
TRAV_149
10
1633.235238
20
0.000000
30
697.075165
0
VERTEX
8
TRAV_149
10
1632.170602
20
0.000000
30
697.311190
0
VERTEX
8
TRAV_149
10
1631.089447
20
0.000000
30
697.453526
0
VERTEX
8
TRAV_149
10
1630.000000
20
0.000000
30
697.501093
0
VERTEX
8
TRAV_149
10
1628.910553
20
0.000000
30
697.453526
0
VERTEX
8
TRAV_149
10
1627.829398
20
0.000000
30
697.311190
0
VERTEX
8
TRAV_149
10
1626.764762
20
0.000000
30
697.075165
0
VERTEX
8
TRAV_149
10
1625.724748
20
0.000000
30
696.747250
0
VERTEX
8
TRAV_149
10
1624.717272
20
0.000000
30
696.329940
0
VERTEX
8
TRAV_149
10
1623.750000
20
0.000000
30
695.826410
0
VERTEX
8
TRAV_149
10
1622.830295
20
0.000000
30
695.240493
0
VERTEX
8
TRAV_149
10
1621.965155
20
0.000000
30
694.576648
0
VERTEX
8
TRAV_149
10
1621.161165
20
0.000000
30
693.839927
0
VERTEX
8
TRAV_149
10
1620.424444
20
0.000000
30
693.035938
0
VERTEX
8
TRAV_149
10
1619.760599
20
0.000000
30
692.170798
0
VERTEX
8
TRAV_149
10
1619.174682
20
0.000000
30
691.251093
0
VERTEX
8
TRAV_149
10
1618.671153
20
0.000000
30
690.283821
0
VERTEX
8
TRAV_149
10
1618.253842
20
0.000000
30
689.276344
0
VERTEX
8
TRAV_149
10
1617.925927
20
0.000000
30
688.236331
0
VERTEX
8
TRAV_149
10
1617.689903
20
0.000000
30
687.171695
0
VERTEX
8
TRAV_149
10
1617.547566
20
0.000000
30
686.090539
0
VERTEX
8
TRAV_149
10
1617.500000
20
0.000000
30
685.001093
0
VERTEX
8
TRAV_149
10
1617.547566
20
0.000000
30
683.911646
0
VERTEX
8
TRAV_149
10
1617.689903
20
0.000000
30
682.830490
0
VERTEX
8
TRAV_149
10
1617.925927
20
0.000000
30
681.765855
0
VERTEX
8
TRAV_149
10
1618.253842
20
0.000000
30
680.725841
0
VERTEX
8
TRAV_149
10
1618.671153
20
0.000000
30
679.718364
0
VERTEX
8
TRAV_149
10
1619.174682
20
0.000000
30
678.751093
0
VERTEX
8
TRAV_149
10
1619.760599
20
0.000000
30
677.831387
0
VERTEX
8
TRAV_149
10
1620.424444
20
0.000000
30
676.966248
0
VERTEX
8
TRAV_149
10
1621.161165
20
0.000000
30
676.162258
0
VERTEX
8
TRAV_149
10
1621.965155
20
0.000000
30
675.425537
0
VERTEX
8
TRAV_149
10
1622.830295
20
0.000000
30
674.761692
0
VERTEX
8
TRAV_149
10
1623.750000
20
0.000000
30
674.175775
0
VERTEX
8
TRAV_149
10
1624.717272
20
0.000000
30
673.672245
0
VERTEX
8
TRAV_149
10
1625.724748
20
0.000000
30
673.254935
0
VERTEX
8
TRAV_149
10
1626.764762
20
0.000000
30
672.927020
0
VERTEX
8
TRAV_149
10
1627.829398
20
0.000000
30
672.690996
0
VERTEX
8
TRAV_149
10
1628.910553
20
0.000000
30
672.548659
0
VERTEX
8
TRAV_149
10
1630.000000
20
0.000000
30
672.501093
0
VERTEX
8
TRAV_149
10
1631.089447
20
0.000000
30
672.548659
0
VERTEX
8
TRAV_149
10
1632.170602
20
0.000000
30
672.690996
0
VERTEX
8
TRAV_149
10
1633.235238
20
0.000000
30
672.927020
0
VERTEX
8
TRAV_149
10
1634.275252
20
0.000000
30
673.254935
0
VERTEX
8
TRAV_149
10
1635.282728
20
0.000000
30
673.672245
0
VERTEX
8
TRAV_149
10
1636.250000
20
0.000000
30
674.175775
0
VERTEX
8
TRAV_149
10
1637.169705
20
0.000000
30
674.761692
0
VERTEX
8
TRAV_149
10
1638.034845
20
0.000000
30
675.425537
0
VERTEX
8
TRAV_149
10
1638.838835
20
0.000000
30
676.162258
0
VERTEX
8
TRAV_149
10
1639.575556
20
0.000000
30
676.966248
0
VERTEX
8
TRAV_149
10
1640.239401
20
0.000000
30
677.831387
0
VERTEX
8
TRAV_149
10
1640.825318
20
0.000000
30
678.751093
0
VERTEX
8
TRAV_149
10
1641.328847
20
0.000000
30
679.718364
0
VERTEX
8
TRAV_149
10
1641.746158
20
0.000000
30
680.725841
0
VERTEX
8
TRAV_149
10
1642.074073
20
0.000000
30
681.765855
0
VERTEX
8
TRAV_149
10
1642.310097
20
0.000000
30
682.830490
0
VERTEX
8
TRAV_149
10
1642.452434
20
0.000000
30
683.911646
0
VERTEX
8
TRAV_149
10
1642.500000
20
0.000000
30
685.001093
0
SEQEND
0
POLYLINE
8
TRAV_149
62
0
66
1
70
9
0
VERTEX
8
TRAV_149
10
1642.500000
20
15.000000
30
685.001093
0
VERTEX
8
TRAV_149
10
1642.452434
20
15.000000
30
683.911646
0
VERTEX
8
TRAV_149
10
1642.310097
20
15.000000
30
682.830490
0
VERTEX
8
TRAV_149
10
1642.074073
20
15.000000
30
681.765855
0
VERTEX
8
TRAV_149
10
1641.746158
20
15.000000
30
680.725841
0
VERTEX
8
TRAV_149
10
1641.328847
20
15.000000
30
679.718364
0
VERTEX
8
TRAV_149
10
1640.825318
20
15.000000
30
678.751093
0
VERTEX
8
TRAV_149
10
1640.239401
20
15.000000
30
677.831387
0
VERTEX
8
TRAV_149
10
1639.575556
20
15.000000
30
676.966248
0
VERTEX
8
TRAV_149
10
1638.838835
20
15.000000
30
676.162258
0
VERTEX
8
TRAV_149
10
1638.034845
20
15.000000
30
675.425537
0
VERTEX
8
TRAV_149
10
1637.169705
20
15.000000
30
674.761692
0
VERTEX
8
TRAV_149
10
1636.250000
20
15.000000
30
674.175775
0
VERTEX
8
TRAV_149
10
1635.282728
20
15.000000
30
673.672245
0
VERTEX
8
TRAV_149
10
1634.275252
20
15.000000
30
673.254935
0
VERTEX
8
TRAV_149
10
1633.235238
20
15.000000
30
672.927020
0
VERTEX
8
TRAV_149
10
1632.170602
20
15.000000
30
672.690996
0
VERTEX
8
TRAV_149
10
1631.089447
20
15.000000
30
672.548659
0
VERTEX
8
TRAV_149
10
1630.000000
20
15.000000
30
672.501093
0
VERTEX
8
TRAV_149
10
1628.910553
20
15.000000
30
672.548659
0
VERTEX
8
TRAV_149
10
1627.829398
20
15.000000
30
672.690996
0
VERTEX
8
TRAV_149
10
1626.764762
20
15.000000
30
672.927020
0
VERTEX
8
TRAV_149
10
1625.724748
20
15.000000
30
673.254935
0
VERTEX
8
TRAV_149
10
1624.717272
20
15.000000
30
673.672245
0
VERTEX
8
TRAV_149
10
1623.750000
20
15.000000
30
674.175775
0
VERTEX
8
TRAV_149
10
1622.830295
20
15.000000
30
674.761692
0
VERTEX
8
TRAV_149
10
1621.965155
20
15.000000
30
675.425537
0
VERTEX
8
TRAV_149
10
1621.161165
20
15.000000
30
676.162258
0
VERTEX
8
TRAV_149
10
1620.424444
20
15.000000
30
676.966248
0
VERTEX
8
TRAV_149
10
1619.760599
20
15.000000
30
677.831387
0
VERTEX
8
TRAV_149
10
1619.174682
20
15.000000
30
678.751093
0
VERTEX
8
TRAV_149
10
1618.671153
20
15.000000
30
679.718364
0
VERTEX
8
TRAV_149
10
1618.253842
20
15.000000
30
680.725841
0
VERTEX
8
TRAV_149
10
1617.925927
20
15.000000
30
681.765855
0
VERTEX
8
TRAV_149
10
1617.689903
20
15.000000
30
682.830490
0
VERTEX
8
TRAV_149
10
1617.547566
20
15.000000
30
683.911646
0
VERTEX
8
TRAV_149
10
1617.500000
20
15.000000
30
685.001093
0
VERTEX
8
TRAV_149
10
1617.547566
20
15.000000
30
686.090539
0
VERTEX
8
TRAV_149
10
1617.689903
20
15.000000
30
687.171695
0
VERTEX
8
TRAV_149
10
1617.925927
20
15.000000
30
688.236331
0
VERTEX
8
TRAV_149
10
1618.253842
20
15.000000
30
689.276344
0
VERTEX
8
TRAV_149
10
1618.671153
20
15.000000
30
690.283821
0
VERTEX
8
TRAV_149
10
1619.174682
20
15.000000
30
691.251093
0
VERTEX
8
TRAV_149
10
1619.760599
20
15.000000
30
692.170798
0
VERTEX
8
TRAV_149
10
1620.424444
20
15.000000
30
693.035938
0
VERTEX
8
TRAV_149
10
1621.161165
20
15.000000
30
693.839927
0
VERTEX
8
TRAV_149
10
1621.965155
20
15.000000
30
694.576648
0
VERTEX
8
TRAV_149
10
1622.830295
20
15.000000
30
695.240493
0
VERTEX
8
TRAV_149
10
1623.750000
20
15.000000
30
695.826410
0
VERTEX
8
TRAV_149
10
1624.717272
20
15.000000
30
696.329940
0
VERTEX
8
TRAV_149
10
1625.724748
20
15.000000
30
696.747250
0
VERTEX
8
TRAV_149
10
1626.764762
20
15.000000
30
697.075165
0
VERTEX
8
TRAV_149
10
1627.829398
20
15.000000
30
697.311190
0
VERTEX
8
TRAV_149
10
1628.910553
20
15.000000
30
697.453526
0
VERTEX
8
TRAV_149
10
1630.000000
20
15.000000
30
697.501093
0
VERTEX
8
TRAV_149
10
1631.089447
20
15.000000
30
697.453526
0
VERTEX
8
TRAV_149
10
1632.170602
20
15.000000
30
697.311190
0
VERTEX
8
TRAV_149
10
1633.235238
20
15.000000
30
697.075165
0
VERTEX
8
TRAV_149
10
1634.275252
20
15.000000
30
696.747250
0
VERTEX
8
TRAV_149
10
1635.282728
20
15.000000
30
696.329940
0
VERTEX
8
TRAV_149
10
1636.250000
20
15.000000
30
695.826410
0
VERTEX
8
TRAV_149
10
1637.169705
20
15.000000
30
695.240493
0
VERTEX
8
TRAV_149
10
1638.034845
20
15.000000
30
694.576648
0
VERTEX
8
TRAV_149
10
1638.838835
20
15.000000
30
693.839927
0
VERTEX
8
TRAV_149
10
1639.575556
20
15.000000
30
693.035938
0
VERTEX
8
TRAV_149
10
1640.239401
20
15.000000
30
692.170798
0
VERTEX
8
TRAV_149
10
1640.825318
20
15.000000
30
691.251093
0
VERTEX
8
TRAV_149
10
1641.328847
20
15.000000
30
690.283821
0
VERTEX
8
TRAV_149
10
1641.746158
20
15.000000
30
689.276344
0
VERTEX
8
TRAV_149
10
1642.074073
20
15.000000
30
688.236331
0
VERTEX
8
TRAV_149
10
1642.310097
20
15.000000
30
687.171695
0
VERTEX
8
TRAV_149
10
1642.452434
20
15.000000
30
686.090539
0
SEQEND
0
POLYLINE
8
TRAV_149
62
0
66
1
70
9
0
VERTEX
8
TRAV_149
10
100.000000
20
500.000000
30
-0.000000
0
VERTEX
8
TRAV_149
10
1590.000000
20
500.000000
30
-0.000000
0
VERTEX
8
TRAV_149
10
1590.000000
20
500.000000
30
15.000000
0
VERTEX
8
TRAV_149
10
100.000000
20
500.000000
30
15.000000
0
SEQEND
0
POLYLINE
8
TRAV_149
62
0
66
1
70
9
0
VERTEX
8
TRAV_149
10
1590.000000
20
500.000000
30
-0.000000
0
VERTEX
8
TRAV_149
10
1590.000000
20
550.000000
30
-0.000000
0
VERTEX
8
TRAV_149
10
1590.000000
20
550.000000
30
15.000000
0
VERTEX
8
TRAV_149
10
1590.000000
20
500.000000
30
15.000000
0
SEQEND
0
POLYLINE
8
TRAV_149
62
0
66
1
70
9
0
VERTEX
8
TRAV_149
10
1590.000000
20
550.000000
30
-0.000000
0
VERTEX
8
TRAV_149
10
100.000000
20
550.000000
30
-0.000000
0
VERTEX
8
TRAV_149
10
100.000000
20
550.000000
30
15.000000
0
VERTEX
8
TRAV_149
10
1590.000000
20
550.000000
30
15.000000
0
SEQEND
0
POLYLINE
8
TRAV_149
62
0
66
1
70
9
0
VERTEX
8
TRAV_149
10
100.000000
20
550.000000
30
-0.000000
0
VERTEX
8
TRAV_149
10
100.000000
20
500.000000
30
-0.000000
0
VERTEX
8
TRAV_149
10
100.000000
20
500.000000
30
15.000000
0
VERTEX
8
TRAV_149
10
100.000000
20
550.000000
30
15.000000
0
SEQEND
0
POLYLINE
8
TRAV_149
62
0
66
1
70
9
0
VERTEX
8
TRAV_149
10
100.000000
20
500.000000
30
-0.000000
0
VERTEX
8
TRAV_149
10
100.000000
20
550.000000
30
-0.000000
0
VERTEX
8
TRAV_149
10
1590.000000
20
550.000000
30
-0.000000
0
VERTEX
8
TRAV_149
10
1590.000000
20
500.000000
30
-0.000000
0
SEQEND
0
POLYLINE
8
TRAV_149
62
0
66
1
70
9
0
VERTEX
8
TRAV_149
10
100.000000
20
500.000000
30
15.000000
0
VERTEX
8
TRAV_149
10
1590.000000
20
500.000000
30
15.000000
0
VERTEX
8
TRAV_149
10
1590.000000
20
550.000000
30
15.000000
0
VERTEX
8
TRAV_149
10
100.000000
20
550.000000
30
15.000000
0
SEQEND
0
POLYLINE
8
TRAV_149
62
0
66
1
70
9
0
VERTEX
8
TRAV_149
10
-55.000000
20
710.000000
30
695.000000
0
VERTEX
8
TRAV_149
10
1745.000000
20
710.000000
30
695.000000
0
VERTEX
8
TRAV_149
10
1745.000000
20
710.000000
30
750.000000
0
VERTEX
8
TRAV_149
10
-55.000000
20
710.000000
30
750.000000
0
SEQEND
0
POLYLINE
8
TRAV_149
62
0
66
1
70
9
0
VERTEX
8
TRAV_149
10
1745.000000
20
710.000000
30
695.000000
0
VERTEX
8
TRAV_149
10
1745.000000
20
830.000000
30
695.000000
0
VERTEX
8
TRAV_149
10
1745.000000
20
830.000000
30
750.000000
0
VERTEX
8
TRAV_149
10
1745.000000
20
710.000000
30
750.000000
0
SEQEND
0
POLYLINE
8
TRAV_149
62
0
66
1
70
9
0
VERTEX
8
TRAV_149
10
1745.000000
20
830.000000
30
695.000000
0
VERTEX
8
TRAV_149
10
-55.000000
20
830.000000
30
695.000000
0
VERTEX
8
TRAV_149
10
-55.000000
20
830.000000
30
750.000000
0
VERTEX
8
TRAV_149
10
1745.000000
20
830.000000
30
750.000000
0
SEQEND
0
POLYLINE
8
TRAV_149
62
0
66
1
70
9
0
VERTEX
8
TRAV_149
10
-55.000000
20
830.000000
30
695.000000
0
VERTEX
8
TRAV_149
10
-55.000000
20
710.000000
30
695.000000
0
VERTEX
8
TRAV_149
10
-55.000000
20
710.000000
30
750.000000
0
VERTEX
8
TRAV_149
10
-55.000000
20
830.000000
30
750.000000
0
SEQEND
0
POLYLINE
8
TRAV_149
62
0
66
1
70
9
0
VERTEX
8
TRAV_149
10
-55.000000
20
710.000000
30
695.000000
0
VERTEX
8
TRAV_149
10
-55.000000
20
830.000000
30
695.000000
0
VERTEX
8
TRAV_149
10
1745.000000
20
830.000000
30
695.000000
0
VERTEX
8
TRAV_149
10
1745.000000
20
710.000000
30
695.000000
0
SEQEND
0
POLYLINE
8
TRAV_149
62
0
66
1
70
9
0
VERTEX
8
TRAV_149
10
-55.000000
20
710.000000
30
750.000000
0
VERTEX
8
TRAV_149
10
1745.000000
20
710.000000
30
750.000000
0
VERTEX
8
TRAV_149
10
1745.000000
20
830.000000
30
750.000000
0
VERTEX
8
TRAV_149
10
-55.000000
20
830.000000
30
750.000000
0
SEQEND
0
POLYLINE
8
TRAV_149
62
0
66
1
70
9
0
VERTEX
8
TRAV_149
10
-55.000000
20
590.000000
30
695.000000
0
VERTEX
8
TRAV_149
10
1745.000000
20
590.000000
30
695.000000
0
VERTEX
8
TRAV_149
10
1745.000000
20
590.000000
30
750.000000
0
VERTEX
8
TRAV_149
10
-55.000000
20
590.000000
30
750.000000
0
SEQEND
0
POLYLINE
8
TRAV_149
62
0
66
1
70
9
0
VERTEX
8
TRAV_149
10
1745.000000
20
590.000000
30
695.000000
0
VERTEX
8
TRAV_149
10
1745.000000
20
710.000000
30
695.000000
0
VERTEX
8
TRAV_149
10
1745.000000
20
710.000000
30
750.000000
0
VERTEX
8
TRAV_149
10
1745.000000
20
590.000000
30
750.000000
0
SEQEND
0
POLYLINE
8
TRAV_149
62
0
66
1
70
9
0
VERTEX
8
TRAV_149
10
1745.000000
20
710.000000
30
695.000000
0
VERTEX
8
TRAV_149
10
-55.000000
20
710.000000
30
695.000000
0
VERTEX
8
TRAV_149
10
-55.000000
20
710.000000
30
750.000000
0
VERTEX
8
TRAV_149
10
1745.000000
20
710.000000
30
750.000000
0
SEQEND
0
POLYLINE
8
TRAV_149
62
0
66
1
70
9
0
VERTEX
8
TRAV_149
10
-55.000000
20
710.000000
30
695.000000
0
VERTEX
8
TRAV_149
10
-55.000000
20
590.000000
30
695.000000
0
VERTEX
8
TRAV_149
10
-55.000000
20
590.000000
30
750.000000
0
VERTEX
8
TRAV_149
10
-55.000000
20
710.000000
30
750.000000
0
SEQEND
0
POLYLINE
8
TRAV_149
62
0
66
1
70
9
0
VERTEX
8
TRAV_149
10
-55.000000
20
590.000000
30
695.000000
0
VERTEX
8
TRAV_149
10
-55.000000
20
710.000000
30
695.000000
0
VERTEX
8
TRAV_149
10
1745.000000
20
710.000000
30
695.000000
0
VERTEX
8
TRAV_149
10
1745.000000
20
590.000000
30
695.000000
0
SEQEND
0
POLYLINE
8
TRAV_149
62
0
66
1
70
9
0
VERTEX
8
TRAV_149
10
-55.000000
20
590.000000
30
750.000000
0
VERTEX
8
TRAV_149
10
1745.000000
20
590.000000
30
750.000000
0
VERTEX
8
TRAV_149
10
1745.000000
20
710.000000
30
750.000000
0
VERTEX
8
TRAV_149
10
-55.000000
20
710.000000
30
750.000000
0
SEQEND
0
POLYLINE
8
TRAV_149
62
0
66
1
70
9
0
VERTEX
8
TRAV_149
10
-55.000000
20
470.000000
30
695.000000
0
VERTEX
8
TRAV_149
10
1745.000000
20
470.000000
30
695.000000
0
VERTEX
8
TRAV_149
10
1745.000000
20
470.000000
30
750.000000
0
VERTEX
8
TRAV_149
10
-55.000000
20
470.000000
30
750.000000
0
SEQEND
0
POLYLINE
8
TRAV_149
62
0
66
1
70
9
0
VERTEX
8
TRAV_149
10
1745.000000
20
470.000000
30
695.000000
0
VERTEX
8
TRAV_149
10
1745.000000
20
590.000000
30
695.000000
0
VERTEX
8
TRAV_149
10
1745.000000
20
590.000000
30
750.000000
0
VERTEX
8
TRAV_149
10
1745.000000
20
470.000000
30
750.000000
0
SEQEND
0
POLYLINE
8
TRAV_149
62
0
66
1
70
9
0
VERTEX
8
TRAV_149
10
1745.000000
20
590.000000
30
695.000000
0
VERTEX
8
TRAV_149
10
-55.000000
20
590.000000
30
695.000000
0
VERTEX
8
TRAV_149
10
-55.000000
20
590.000000
30
750.000000
0
VERTEX
8
TRAV_149
10
1745.000000
20
590.000000
30
750.000000
0
SEQEND
0
POLYLINE
8
TRAV_149
62
0
66
1
70
9
0
VERTEX
8
TRAV_149
10
-55.000000
20
590.000000
30
695.000000
0
VERTEX
8
TRAV_149
10
-55.000000
20
470.000000
30
695.000000
0
VERTEX
8
TRAV_149
10
-55.000000
20
470.000000
30
750.000000
0
VERTEX
8
TRAV_149
10
-55.000000
20
590.000000
30
750.000000
0
SEQEND
0
POLYLINE
8
TRAV_149
62
0
66
1
70
9
0
VERTEX
8
TRAV_149
10
-55.000000
20
470.000000
30
695.000000
0
VERTEX
8
TRAV_149
10
-55.000000
20
590.000000
30
695.000000
0
VERTEX
8
TRAV_149
10
1745.000000
20
590.000000
30
695.000000
0
VERTEX
8
TRAV_149
10
1745.000000
20
470.000000
30
695.000000
0
SEQEND
0
POLYLINE
8
TRAV_149
62
0
66
1
70
9
0
VERTEX
8
TRAV_149
10
-55.000000
20
470.000000
30
750.000000
0
VERTEX
8
TRAV_149
10
1745.000000
20
470.000000
30
750.000000
0
VERTEX
8
TRAV_149
10
1745.000000
20
590.000000
30
750.000000
0
VERTEX
8
TRAV_149
10
-55.000000
20
590.000000
30
750.000000
0
SEQEND
0
POLYLINE
8
TRAV_149
62
0
66
1
70
9
0
VERTEX
8
TRAV_149
10
-55.000000
20
350.000000
30
695.000000
0
VERTEX
8
TRAV_149
10
1745.000000
20
350.000000
30
695.000000
0
VERTEX
8
TRAV_149
10
1745.000000
20
350.000000
30
750.000000
0
VERTEX
8
TRAV_149
10
-55.000000
20
350.000000
30
750.000000
0
SEQEND
0
POLYLINE
8
TRAV_149
62
0
66
1
70
9
0
VERTEX
8
TRAV_149
10
1745.000000
20
350.000000
30
695.000000
0
VERTEX
8
TRAV_149
10
1745.000000
20
470.000000
30
695.000000
0
VERTEX
8
TRAV_149
10
1745.000000
20
470.000000
30
750.000000
0
VERTEX
8
TRAV_149
10
1745.000000
20
350.000000
30
750.000000
0
SEQEND
0
POLYLINE
8
TRAV_149
62
0
66
1
70
9
0
VERTEX
8
TRAV_149
10
1745.000000
20
470.000000
30
695.000000
0
VERTEX
8
TRAV_149
10
-55.000000
20
470.000000
30
695.000000
0
VERTEX
8
TRAV_149
10
-55.000000
20
470.000000
30
750.000000
0
VERTEX
8
TRAV_149
10
1745.000000
20
470.000000
30
750.000000
0
SEQEND
0
POLYLINE
8
TRAV_149
62
0
66
1
70
9
0
VERTEX
8
TRAV_149
10
-55.000000
20
470.000000
30
695.000000
0
VERTEX
8
TRAV_149
10
-55.000000
20
350.000000
30
695.000000
0
VERTEX
8
TRAV_149
10
-55.000000
20
350.000000
30
750.000000
0
VERTEX
8
TRAV_149
10
-55.000000
20
470.000000
30
750.000000
0
SEQEND
0
POLYLINE
8
TRAV_149
62
0
66
1
70
9
0
VERTEX
8
TRAV_149
10
-55.000000
20
350.000000
30
695.000000
0
VERTEX
8
TRAV_149
10
-55.000000
20
470.000000
30
695.000000
0
VERTEX
8
TRAV_149
10
1745.000000
20
470.000000
30
695.000000
0
VERTEX
8
TRAV_149
10
1745.000000
20
350.000000
30
695.000000
0
SEQEND
0
POLYLINE
8
TRAV_149
62
0
66
1
70
9
0
VERTEX
8
TRAV_149
10
-55.000000
20
350.000000
30
750.000000
0
VERTEX
8
TRAV_149
10
1745.000000
20
350.000000
30
750.000000
0
VERTEX
8
TRAV_149
10
1745.000000
20
470.000000
30
750.000000
0
VERTEX
8
TRAV_149
10
-55.000000
20
470.000000
30
750.000000
0
SEQEND
0
POLYLINE
8
TRAV_149
62
0
66
1
70
9
0
VERTEX
8
TRAV_149
10
-55.000000
20
230.000000
30
695.000000
0
VERTEX
8
TRAV_149
10
1745.000000
20
230.000000
30
695.000000
0
VERTEX
8
TRAV_149
10
1745.000000
20
230.000000
30
750.000000
0
VERTEX
8
TRAV_149
10
-55.000000
20
230.000000
30
750.000000
0
SEQEND
0
POLYLINE
8
TRAV_149
62
0
66
1
70
9
0
VERTEX
8
TRAV_149
10
1745.000000
20
230.000000
30
695.000000
0
VERTEX
8
TRAV_149
10
1745.000000
20
350.000000
30
695.000000
0
VERTEX
8
TRAV_149
10
1745.000000
20
350.000000
30
750.000000
0
VERTEX
8
TRAV_149
10
1745.000000
20
230.000000
30
750.000000
0
SEQEND
0
POLYLINE
8
TRAV_149
62
0
66
1
70
9
0
VERTEX
8
TRAV_149
10
1745.000000
20
350.000000
30
695.000000
0
VERTEX
8
TRAV_149
10
-55.000000
20
350.000000
30
695.000000
0
VERTEX
8
TRAV_149
10
-55.000000
20
350.000000
30
750.000000
0
VERTEX
8
TRAV_149
10
1745.000000
20
350.000000
30
750.000000
0
SEQEND
0
POLYLINE
8
TRAV_149
62
0
66
1
70
9
0
VERTEX
8
TRAV_149
10
-55.000000
20
350.000000
30
695.000000
0
VERTEX
8
TRAV_149
10
-55.000000
20
230.000000
30
695.000000
0
VERTEX
8
TRAV_149
10
-55.000000
20
230.000000
30
750.000000
0
VERTEX
8
TRAV_149
10
-55.000000
20
350.000000
30
750.000000
0
SEQEND
0
POLYLINE
8
TRAV_149
62
0
66
1
70
9
0
VERTEX
8
TRAV_149
10
-55.000000
20
230.000000
30
695.000000
0
VERTEX
8
TRAV_149
10
-55.000000
20
350.000000
30
695.000000
0
VERTEX
8
TRAV_149
10
1745.000000
20
350.000000
30
695.000000
0
VERTEX
8
TRAV_149
10
1745.000000
20
230.000000
30
695.000000
0
SEQEND
0
POLYLINE
8
TRAV_149
62
0
66
1
70
9
0
VERTEX
8
TRAV_149
10
-55.000000
20
230.000000
30
750.000000
0
VERTEX
8
TRAV_149
10
1745.000000
20
230.000000
30
750.000000
0
VERTEX
8
TRAV_149
10
1745.000000
20
350.000000
30
750.000000
0
VERTEX
8
TRAV_149
10
-55.000000
20
350.000000
30
750.000000
0
SEQEND
0
POLYLINE
8
TRAV_149
62
0
66
1
70
9
0
VERTEX
8
TRAV_149
10
-55.000000
20
110.000000
30
695.000000
0
VERTEX
8
TRAV_149
10
1745.000000
20
110.000000
30
695.000000
0
VERTEX
8
TRAV_149
10
1745.000000
20
110.000000
30
750.000000
0
VERTEX
8
TRAV_149
10
-55.000000
20
110.000000
30
750.000000
0
SEQEND
0
POLYLINE
8
TRAV_149
62
0
66
1
70
9
0
VERTEX
8
TRAV_149
10
1745.000000
20
110.000000
30
695.000000
0
VERTEX
8
TRAV_149
10
1745.000000
20
230.000000
30
695.000000
0
VERTEX
8
TRAV_149
10
1745.000000
20
230.000000
30
750.000000
0
VERTEX
8
TRAV_149
10
1745.000000
20
110.000000
30
750.000000
0
SEQEND
0
POLYLINE
8
TRAV_149
62
0
66
1
70
9
0
VERTEX
8
TRAV_149
10
1745.000000
20
230.000000
30
695.000000
0
VERTEX
8
TRAV_149
10
-55.000000
20
230.000000
30
695.000000
0
VERTEX
8
TRAV_149
10
-55.000000
20
230.000000
30
750.000000
0
VERTEX
8
TRAV_149
10
1745.000000
20
230.000000
30
750.000000
0
SEQEND
0
POLYLINE
8
TRAV_149
62
0
66
1
70
9
0
VERTEX
8
TRAV_149
10
-55.000000
20
230.000000
30
695.000000
0
VERTEX
8
TRAV_149
10
-55.000000
20
110.000000
30
695.000000
0
VERTEX
8
TRAV_149
10
-55.000000
20
110.000000
30
750.000000
0
VERTEX
8
TRAV_149
10
-55.000000
20
230.000000
30
750.000000
0
SEQEND
0
POLYLINE
8
TRAV_149
62
0
66
1
70
9
0
VERTEX
8
TRAV_149
10
-55.000000
20
110.000000
30
695.000000
0
VERTEX
8
TRAV_149
10
-55.000000
20
230.000000
30
695.000000
0
VERTEX
8
TRAV_149
10
1745.000000
20
230.000000
30
695.000000
0
VERTEX
8
TRAV_149
10
1745.000000
20
110.000000
30
695.000000
0
SEQEND
0
POLYLINE
8
TRAV_149
62
0
66
1
70
9
0
VERTEX
8
TRAV_149
10
-55.000000
20
110.000000
30
750.000000
0
VERTEX
8
TRAV_149
10
1745.000000
20
110.000000
30
750.000000
0
VERTEX
8
TRAV_149
10
1745.000000
20
230.000000
30
750.000000
0
VERTEX
8
TRAV_149
10
-55.000000
20
230.000000
30
750.000000
0
SEQEND
0
POLYLINE
8
001
62
0
66
1
70
9
0
VERTEX
8
001
10
1745.000000
20
1050.000000
30
695.000000
0
VERTEX
8
001
10
1745.000000
20
930.000000
30
695.000000
0
VERTEX
8
001
10
-55.000000
20
930.000000
30
695.000000
0
VERTEX
8
001
10
-55.000000
20
1050.000000
30
695.000000
0
VERTEX
8
001
10
20.000000
20
1050.000000
30
695.000000
0
VERTEX
8
001
10
20.000000
20
1035.000000
30
695.000000
0
VERTEX
8
001
10
100.000000
20
1035.000000
30
695.000000
0
VERTEX
8
001
10
100.000000
20
1050.000000
30
695.000000
0
VERTEX
8
001
10
1590.000000
20
1050.000000
30
695.000000
0
VERTEX
8
001
10
1590.000000
20
1035.000000
30
695.000000
0
VERTEX
8
001
10
1670.000000
20
1035.000000
30
695.000000
0
VERTEX
8
001
10
1670.000000
20
1050.000000
30
695.000000
0
SEQEND
0
POLYLINE
8
001
62
0
66
1
70
9
0
VERTEX
8
001
10
-55.000000
20
1050.000000
30
750.000000
0
VERTEX
8
001
10
-55.000000
20
930.000000
30
750.000000
0
VERTEX
8
001
10
1745.000000
20
930.000000
30
750.000000
0
VERTEX
8
001
10
1745.000000
20
1050.000000
30
750.000000
0
VERTEX
8
001
10
1670.000000
20
1050.000000
30
750.000000
0
VERTEX
8
001
10
1670.000000
20
1035.000000
30
750.000000
0
VERTEX
8
001
10
1590.000000
20
1035.000000
30
750.000000
0
VERTEX
8
001
10
1590.000000
20
1050.000000
30
750.000000
0
VERTEX
8
001
10
100.000000
20
1050.000000
30
750.000000
0
VERTEX
8
001
10
100.000000
20
1035.000000
30
750.000000
0
VERTEX
8
001
10
20.000000
20
1035.000000
30
750.000000
0
VERTEX
8
001
10
20.000000
20
1050.000000
30
750.000000
0
SEQEND
0
POLYLINE
8
001
62
0
66
1
70
9
0
VERTEX
8
001
10
100.000000
20
1050.000000
30
750.000000
0
VERTEX
8
001
10
1590.000000
20
1050.000000
30
750.000000
0
VERTEX
8
001
10
1590.000000
20
1050.000000
30
695.000000
0
VERTEX
8
001
10
100.000000
20
1050.000000
30
695.000000
0
SEQEND
0
POLYLINE
8
001
62
0
66
1
70
9
0
VERTEX
8
001
10
1670.000000
20
1050.000000
30
750.000000
0
VERTEX
8
001
10
1745.000000
20
1050.000000
30
750.000000
0
VERTEX
8
001
10
1745.000000
20
1050.000000
30
695.000000
0
VERTEX
8
001
10
1670.000000
20
1050.000000
30
695.000000
0
SEQEND
0
POLYLINE
8
001
62
0
66
1
70
9
0
VERTEX
8
001
10
1670.000000
20
1035.000000
30
695.000000
0
VERTEX
8
001
10
1670.000000
20
1035.000000
30
750.000000
0
VERTEX
8
001
10
1670.000000
20
1050.000000
30
750.000000
0
VERTEX
8
001
10
1670.000000
20
1050.000000
30
695.000000
0
SEQEND
0
POLYLINE
8
001
62
0
66
1
70
9
0
VERTEX
8
001
10
1590.000000
20
1050.000000
30
695.000000
0
VERTEX
8
001
10
1590.000000
20
1050.000000
30
750.000000
0
VERTEX
8
001
10
1590.000000
20
1035.000000
30
750.000000
0
VERTEX
8
001
10
1590.000000
20
1035.000000
30
695.000000
0
SEQEND
0
POLYLINE
8
001
62
0
66
1
70
9
0
VERTEX
8
001
10
1590.000000
20
1035.000000
30
695.000000
0
VERTEX
8
001
10
1590.000000
20
1035.000000
30
750.000000
0
VERTEX
8
001
10
1670.000000
20
1035.000000
30
750.000000
0
VERTEX
8
001
10
1670.000000
20
1035.000000
30
695.000000
0
SEQEND
0
POLYLINE
8
001
62
0
66
1
70
9
0
VERTEX
8
001
10
-55.000000
20
1050.000000
30
695.000000
0
VERTEX
8
001
10
-55.000000
20
1050.000000
30
750.000000
0
VERTEX
8
001
10
20.000000
20
1050.000000
30
750.000000
0
VERTEX
8
001
10
20.000000
20
1050.000000
30
695.000000
0
SEQEND
0
POLYLINE
8
001
62
0
66
1
70
9
0
VERTEX
8
001
10
100.000000
20
1035.000000
30
695.000000
0
VERTEX
8
001
10
100.000000
20
1035.000000
30
750.000000
0
VERTEX
8
001
10
100.000000
20
1050.000000
30
750.000000
0
VERTEX
8
001
10
100.000000
20
1050.000000
30
695.000000
0
SEQEND
0
POLYLINE
8
001
62
0
66
1
70
9
0
VERTEX
8
001
10
20.000000
20
1050.000000
30
695.000000
0
VERTEX
8
001
10
20.000000
20
1050.000000
30
750.000000
0
VERTEX
8
001
10
20.000000
20
1035.000000
30
750.000000
0
VERTEX
8
001
10
20.000000
20
1035.000000
30
695.000000
0
SEQEND
0
POLYLINE
8
001
62
0
66
1
70
9
0
VERTEX
8
001
10
20.000000
20
1035.000000
30
695.000000
0
VERTEX
8
001
10
20.000000
20
1035.000000
30
750.000000
0
VERTEX
8
001
10
100.000000
20
1035.000000
30
750.000000
0
VERTEX
8
001
10
100.000000
20
1035.000000
30
695.000000
0
SEQEND
0
POLYLINE
8
001
62
0
66
1
70
9
0
VERTEX
8
001
10
-55.000000
20
930.000000
30
695.000000
0
VERTEX
8
001
10
1745.000000
20
930.000000
30
695.000000
0
VERTEX
8
001
10
1745.000000
20
930.000000
30
750.000000
0
VERTEX
8
001
10
-55.000000
20
930.000000
30
750.000000
0
SEQEND
0
POLYLINE
8
001
62
0
66
1
70
9
0
VERTEX
8
001
10
1745.000000
20
930.000000
30
695.000000
0
VERTEX
8
001
10
1745.000000
20
1050.000000
30
695.000000
0
VERTEX
8
001
10
1745.000000
20
1050.000000
30
750.000000
0
VERTEX
8
001
10
1745.000000
20
930.000000
30
750.000000
0
SEQEND
0
POLYLINE
8
001
62
0
66
1
70
9
0
VERTEX
8
001
10
-55.000000
20
1050.000000
30
695.000000
0
VERTEX
8
001
10
-55.000000
20
930.000000
30
695.000000
0
VERTEX
8
001
10
-55.000000
20
930.000000
30
750.000000
0
VERTEX
8
001
10
-55.000000
20
1050.000000
30
750.000000
0
SEQEND
0
POLYLINE
8
TRAV_149
62
0
66
1
70
9
0
VERTEX
8
TRAV_149
10
1670.000000
20
15.486152
30
643.663532
0
VERTEX
8
TRAV_149
10
1670.000000
20
122.402375
30
37.311499
0
VERTEX
8
TRAV_149
10
1590.000000
20
122.402375
30
37.311499
0
VERTEX
8
TRAV_149
10
1590.000000
20
15.486152
30
643.663532
0
SEQEND
0
POLYLINE
8
TRAV_149
62
0
66
1
70
9
0
VERTEX
8
TRAV_149
10
1590.000000
20
15.000000
30
649.220274
0
VERTEX
8
TRAV_149
10
1590.000000
20
15.000000
30
750.000000
0
VERTEX
8
TRAV_149
10
1670.000000
20
15.000000
30
750.000000
0
VERTEX
8
TRAV_149
10
1670.000000
20
15.000000
30
649.220274
0
SEQEND
0
POLYLINE
8
TRAV_149
62
0
66
1
70
9
0
VERTEX
8
TRAV_149
10
1670.000000
20
941.350466
30
28.921324
0
VERTEX
8
TRAV_149
10
1670.000000
20
1049.392111
30
641.553067
0
VERTEX
8
TRAV_149
10
1670.000000
20
1049.519436
30
642.318365
0
VERTEX
8
TRAV_149
10
1670.000000
20
1049.631895
30
643.085988
0
VERTEX
8
TRAV_149
10
1670.000000
20
1049.729445
30
643.855648
0
VERTEX
8
TRAV_149
10
1670.000000
20
1049.812050
30
644.627055
0
VERTEX
8
TRAV_149
10
1670.000000
20
1049.879678
30
645.399919
0
VERTEX
8
TRAV_149
10
1670.000000
20
1049.932304
30
646.173950
0
VERTEX
8
TRAV_149
10
1670.000000
20
1049.969908
30
646.948855
0
VERTEX
8
TRAV_149
10
1670.000000
20
1049.992476
30
647.724344
0
VERTEX
8
TRAV_149
10
1670.000000
20
1050.000000
30
648.500125
0
VERTEX
8
TRAV_149
10
1670.000000
20
1050.000000
30
750.000000
0
VERTEX
8
TRAV_149
10
1670.000000
20
1035.000000
30
750.000000
0
VERTEX
8
TRAV_149
10
1670.000000
20
1035.000000
30
649.220274
0
VERTEX
8
TRAV_149
10
1670.000000
20
1034.993983
30
648.599752
0
VERTEX
8
TRAV_149
10
1670.000000
20
1034.975934
30
647.979462
0
VERTEX
8
TRAV_149
10
1670.000000
20
1034.945861
30
647.359640
0
VERTEX
8
TRAV_149
10
1670.000000
20
1034.903774
30
646.740517
0
VERTEX
8
TRAV_149
10
1670.000000
20
1034.849689
30
646.122326
0
VERTEX
8
TRAV_149
10
1670.000000
20
1034.783627
30
645.505301
0
VERTEX
8
TRAV_149
10
1670.000000
20
1034.705613
30
644.889673
0
VERTEX
8
TRAV_149
10
1670.000000
20
1034.615675
30
644.275673
0
VERTEX
8
TRAV_149
10
1670.000000
20
1034.513848
30
643.663532
0
VERTEX
8
TRAV_149
10
1670.000000
20
927.597625
30
37.311499
0
VERTEX
8
TRAV_149
10
1670.000000
20
926.553816
30
33.259184
0
VERTEX
8
TRAV_149
10
1670.000000
20
924.896384
30
29.416825
0
VERTEX
8
TRAV_149
10
1670.000000
20
922.665142
30
25.876718
0
VERTEX
8
TRAV_149
10
1670.000000
20
919.913684
30
22.723897
0
VERTEX
8
TRAV_149
10
1670.000000
20
916.708101
30
20.034094
0
VERTEX
8
TRAV_149
10
1670.000000
20
913.125393
30
17.871919
0
VERTEX
8
TRAV_149
10
1670.000000
20
909.251617
30
16.289307
0
VERTEX
8
TRAV_149
10
1670.000000
20
905.179823
30
15.324274
0
VERTEX
8
TRAV_149
10
1670.000000
20
901.007815
30
15.000000
0
VERTEX
8
TRAV_149
10
1670.000000
20
148.992185
30
15.000000
0
VERTEX
8
TRAV_149
10
1670.000000
20
144.820177
30
15.324274
0
VERTEX
8
TRAV_149
10
1670.000000
20
140.748383
30
16.289307
0
VERTEX
8
TRAV_149
10
1670.000000
20
136.874607
30
17.871919
0
VERTEX
8
TRAV_149
10
1670.000000
20
133.291899
30
20.034094
0
VERTEX
8
TRAV_149
10
1670.000000
20
130.086316
30
22.723897
0
VERTEX
8
TRAV_149
10
1670.000000
20
127.334858
30
25.876718
0
VERTEX
8
TRAV_149
10
1670.000000
20
125.103616
30
29.416825
0
VERTEX
8
TRAV_149
10
1670.000000
20
123.446184
30
33.259184
0
VERTEX
8
TRAV_149
10
1670.000000
20
122.402375
30
37.311499
0
VERTEX
8
TRAV_149
10
1670.000000
20
15.486152
30
643.663532
0
VERTEX
8
TRAV_149
10
1670.000000
20
15.384325
30
644.275673
0
VERTEX
8
TRAV_149
10
1670.000000
20
15.294387
30
644.889673
0
VERTEX
8
TRAV_149
10
1670.000000
20
15.216373
30
645.505301
0
VERTEX
8
TRAV_149
10
1670.000000
20
15.150311
30
646.122326
0
VERTEX
8
TRAV_149
10
1670.000000
20
15.096226
30
646.740517
0
VERTEX
8
TRAV_149
10
1670.000000
20
15.054139
30
647.359640
0
VERTEX
8
TRAV_149
10
1670.000000
20
15.024066
30
647.979462
0
VERTEX
8
TRAV_149
10
1670.000000
20
15.006017
30
648.599752
0
VERTEX
8
TRAV_149
10
1670.000000
20
15.000000
30
649.220274
0
VERTEX
8
TRAV_149
10
1670.000000
20
15.000000
30
750.000000
0
VERTEX
8
TRAV_149
10
1670.000000
20
0.000000
30
750.000000
0
VERTEX
8
TRAV_149
10
1670.000000
20
0.000000
30
648.500125
0
VERTEX
8
TRAV_149
10
1670.000000
20
0.007524
30
647.724344
0
VERTEX
8
TRAV_149
10
1670.000000
20
0.030092
30
646.948855
0
VERTEX
8
TRAV_149
10
1670.000000
20
0.067696
30
646.173950
0
VERTEX
8
TRAV_149
10
1670.000000
20
0.120322
30
645.399919
0
VERTEX
8
TRAV_149
10
1670.000000
20
0.187950
30
644.627055
0
VERTEX
8
TRAV_149
10
1670.000000
20
0.270555
30
643.855648
0
VERTEX
8
TRAV_149
10
1670.000000
20
0.368105
30
643.085988
0
VERTEX
8
TRAV_149
10
1670.000000
20
0.480564
30
642.318365
0
VERTEX
8
TRAV_149
10
1670.000000
20
0.607889
30
641.553067
0
VERTEX
8
TRAV_149
10
1670.000000
20
108.649534
30
28.921324
0
VERTEX
8
TRAV_149
10
1670.000000
20
110.002734
30
23.668467
0
VERTEX
8
TRAV_149
10
1670.000000
20
112.151332
30
18.687785
0
VERTEX
8
TRAV_149
10
1670.000000
20
115.043719
30
14.098912
0
VERTEX
8
TRAV_149
10
1670.000000
20
118.610422
30
10.012068
0
VERTEX
8
TRAV_149
10
1670.000000
20
122.765772
30
6.525418
0
VERTEX
8
TRAV_149
10
1670.000000
20
127.409959
30
3.722707
0
VERTEX
8
TRAV_149
10
1670.000000
20
132.431434
30
1.671256
0
VERTEX
8
TRAV_149
10
1670.000000
20
137.709583
30
0.420338
0
VERTEX
8
TRAV_149
10
1670.000000
20
143.117631
30
0.000000
0
VERTEX
8
TRAV_149
10
1670.000000
20
906.882369
30
-0.000000
0
VERTEX
8
TRAV_149
10
1670.000000
20
912.290417
30
0.420338
0
VERTEX
8
TRAV_149
10
1670.000000
20
917.568566
30
1.671256
0
VERTEX
8
TRAV_149
10
1670.000000
20
922.590041
30
3.722707
0
VERTEX
8
TRAV_149
10
1670.000000
20
927.234228
30
6.525418
0
VERTEX
8
TRAV_149
10
1670.000000
20
931.389578
30
10.012068
0
VERTEX
8
TRAV_149
10
1670.000000
20
934.956281
30
14.098912
0
VERTEX
8
TRAV_149
10
1670.000000
20
937.848668
30
18.687785
0
VERTEX
8
TRAV_149
10
1670.000000
20
939.997266
30
23.668467
0
SEQEND
0
POLYLINE
8
TRAV_149
62
0
66
1
70
9
0
VERTEX
8
TRAV_149
10
1590.000000
20
927.597625
30
37.311499
0
VERTEX
8
TRAV_149
10
1590.000000
20
1034.513848
30
643.663532
0
VERTEX
8
TRAV_149
10
1590.000000
20
1034.615675
30
644.275673
0
VERTEX
8
TRAV_149
10
1590.000000
20
1034.705613
30
644.889673
0
VERTEX
8
TRAV_149
10
1590.000000
20
1034.783627
30
645.505301
0
VERTEX
8
TRAV_149
10
1590.000000
20
1034.849689
30
646.122326
0
VERTEX
8
TRAV_149
10
1590.000000
20
1034.903774
30
646.740517
0
VERTEX
8
TRAV_149
10
1590.000000
20
1034.945861
30
647.359640
0
VERTEX
8
TRAV_149
10
1590.000000
20
1034.975934
30
647.979462
0
VERTEX
8
TRAV_149
10
1590.000000
20
1034.993983
30
648.599752
0
VERTEX
8
TRAV_149
10
1590.000000
20
1035.000000
30
649.220274
0
VERTEX
8
TRAV_149
10
1590.000000
20
1035.000000
30
750.000000
0
VERTEX
8
TRAV_149
10
1590.000000
20
1050.000000
30
750.000000
0
VERTEX
8
TRAV_149
10
1590.000000
20
1050.000000
30
648.500125
0
VERTEX
8
TRAV_149
10
1590.000000
20
1049.992476
30
647.724344
0
VERTEX
8
TRAV_149
10
1590.000000
20
1049.969908
30
646.948855
0
VERTEX
8
TRAV_149
10
1590.000000
20
1049.932304
30
646.173950
0
VERTEX
8
TRAV_149
10
1590.000000
20
1049.879678
30
645.399919
0
VERTEX
8
TRAV_149
10
1590.000000
20
1049.812050
30
644.627055
0
VERTEX
8
TRAV_149
10
1590.000000
20
1049.729445
30
643.855648
0
VERTEX
8
TRAV_149
10
1590.000000
20
1049.631895
30
643.085988
0
VERTEX
8
TRAV_149
10
1590.000000
20
1049.519436
30
642.318365
0
VERTEX
8
TRAV_149
10
1590.000000
20
1049.392111
30
641.553067
0
VERTEX
8
TRAV_149
10
1590.000000
20
941.350466
30
28.921324
0
VERTEX
8
TRAV_149
10
1590.000000
20
939.997266
30
23.668467
0
VERTEX
8
TRAV_149
10
1590.000000
20
937.848668
30
18.687785
0
VERTEX
8
TRAV_149
10
1590.000000
20
934.956281
30
14.098912
0
VERTEX
8
TRAV_149
10
1590.000000
20
931.389578
30
10.012068
0
VERTEX
8
TRAV_149
10
1590.000000
20
927.234228
30
6.525418
0
VERTEX
8
TRAV_149
10
1590.000000
20
922.590041
30
3.722707
0
VERTEX
8
TRAV_149
10
1590.000000
20
917.568566
30
1.671256
0
VERTEX
8
TRAV_149
10
1590.000000
20
912.290417
30
0.420338
0
VERTEX
8
TRAV_149
10
1590.000000
20
906.882369
30
-0.000000
0
VERTEX
8
TRAV_149
10
1590.000000
20
143.117631
30
0.000000
0
VERTEX
8
TRAV_149
10
1590.000000
20
137.709583
30
0.420338
0
VERTEX
8
TRAV_149
10
1590.000000
20
132.431434
30
1.671256
0
VERTEX
8
TRAV_149
10
1590.000000
20
127.409959
30
3.722707
0
VERTEX
8
TRAV_149
10
1590.000000
20
122.765772
30
6.525418
0
VERTEX
8
TRAV_149
10
1590.000000
20
118.610422
30
10.012068
0
VERTEX
8
TRAV_149
10
1590.000000
20
115.043719
30
14.098912
0
VERTEX
8
TRAV_149
10
1590.000000
20
112.151332
30
18.687785
0
VERTEX
8
TRAV_149
10
1590.000000
20
110.002734
30
23.668467
0
VERTEX
8
TRAV_149
10
1590.000000
20
108.649534
30
28.921324
0
VERTEX
8
TRAV_149
10
1590.000000
20
0.607889
30
641.553067
0
VERTEX
8
TRAV_149
10
1590.000000
20
0.480564
30
642.318365
0
VERTEX
8
TRAV_149
10
1590.000000
20
0.368105
30
643.085988
0
VERTEX
8
TRAV_149
10
1590.000000
20
0.270555
30
643.855648
0
VERTEX
8
TRAV_149
10
1590.000000
20
0.187950
30
644.627055
0
VERTEX
8
TRAV_149
10
1590.000000
20
0.120322
30
645.399919
0
VERTEX
8
TRAV_149
10
1590.000000
20
0.067696
30
646.173950
0
VERTEX
8
TRAV_149
10
1590.000000
20
0.030092
30
646.948855
0
VERTEX
8
TRAV_149
10
1590.000000
20
0.007524
30
647.724344
0
VERTEX
8
TRAV_149
10
1590.000000
20
0.000000
30
648.500125
0
VERTEX
8
TRAV_149
10
1590.000000
20
0.000000
30
750.000000
0
VERTEX
8
TRAV_149
10
1590.000000
20
15.000000
30
750.000000
0
VERTEX
8
TRAV_149
10
1590.000000
20
15.000000
30
649.220274
0
VERTEX
8
TRAV_149
10
1590.000000
20
15.006017
30
648.599752
0
VERTEX
8
TRAV_149
10
1590.000000
20
15.024066
30
647.979462
0
VERTEX
8
TRAV_149
10
1590.000000
20
15.054139
30
647.359640
0
VERTEX
8
TRAV_149
10
1590.000000
20
15.096226
30
646.740517
0
VERTEX
8
TRAV_149
10
1590.000000
20
15.150311
30
646.122326
0
VERTEX
8
TRAV_149
10
1590.000000
20
15.216373
30
645.505301
0
VERTEX
8
TRAV_149
10
1590.000000
20
15.294387
30
644.889673
0
VERTEX
8
TRAV_149
10
1590.000000
20
15.384325
30
644.275673
0
VERTEX
8
TRAV_149
10
1590.000000
20
15.486152
30
643.663532
0
VERTEX
8
TRAV_149
10
1590.000000
20
122.402375
30
37.311499
0
VERTEX
8
TRAV_149
10
1590.000000
20
123.446184
30
33.259184
0
VERTEX
8
TRAV_149
10
1590.000000
20
125.103616
30
29.416825
0
VERTEX
8
TRAV_149
10
1590.000000
20
127.334858
30
25.876718
0
VERTEX
8
TRAV_149
10
1590.000000
20
130.086316
30
22.723897
0
VERTEX
8
TRAV_149
10
1590.000000
20
133.291899
30
20.034094
0
VERTEX
8
TRAV_149
10
1590.000000
20
136.874607
30
17.871919
0
VERTEX
8
TRAV_149
10
1590.000000
20
140.748383
30
16.289307
0
VERTEX
8
TRAV_149
10
1590.000000
20
144.820177
30
15.324274
0
VERTEX
8
TRAV_149
10
1590.000000
20
148.992185
30
15.000000
0
VERTEX
8
TRAV_149
10
1590.000000
20
901.007815
30
15.000000
0
VERTEX
8
TRAV_149
10
1590.000000
20
905.179823
30
15.324274
0
VERTEX
8
TRAV_149
10
1590.000000
20
909.251617
30
16.289307
0
VERTEX
8
TRAV_149
10
1590.000000
20
913.125393
30
17.871919
0
VERTEX
8
TRAV_149
10
1590.000000
20
916.708101
30
20.034094
0
VERTEX
8
TRAV_149
10
1590.000000
20
919.913684
30
22.723897
0
VERTEX
8
TRAV_149
10
1590.000000
20
922.665142
30
25.876718
0
VERTEX
8
TRAV_149
10
1590.000000
20
924.896384
30
29.416825
0
VERTEX
8
TRAV_149
10
1590.000000
20
926.553816
30
33.259184
0
SEQEND
0
POLYLINE
8
TRAV_149
62
0
66
1
70
9
0
VERTEX
8
TRAV_149
10
1670.000000
20
15.384325
30
644.275673
0
VERTEX
8
TRAV_149
10
1670.000000
20
15.486152
30
643.663532
0
VERTEX
8
TRAV_149
10
1590.000000
20
15.486152
30
643.663532
0
VERTEX
8
TRAV_149
10
1590.000000
20
15.384325
30
644.275673
0
SEQEND
0
POLYLINE
8
TRAV_149
62
0
66
1
70
9
0
VERTEX
8
TRAV_149
10
1670.000000
20
15.000000
30
649.220274
0
VERTEX
8
TRAV_149
10
1670.000000
20
15.006017
30
648.599752
0
VERTEX
8
TRAV_149
10
1590.000000
20
15.006017
30
648.599752
0
VERTEX
8
TRAV_149
10
1590.000000
20
15.000000
30
649.220274
0
SEQEND
0
POLYLINE
8
TRAV_149
62
0
66
1
70
9
0
VERTEX
8
TRAV_149
10
1590.000000
20
0.607889
30
641.553067
0
VERTEX
8
TRAV_149
10
1590.000000
20
108.649534
30
28.921324
0
VERTEX
8
TRAV_149
10
1670.000000
20
108.649534
30
28.921324
0
VERTEX
8
TRAV_149
10
1670.000000
20
0.607889
30
641.553067
0
SEQEND
0
POLYLINE
8
TRAV_149
62
0
66
1
70
9
0
VERTEX
8
TRAV_149
10
1670.000000
20
0.000000
30
648.500125
0
VERTEX
8
TRAV_149
10
1670.000000
20
0.000000
30
750.000000
0
VERTEX
8
TRAV_149
10
1590.000000
20
0.000000
30
750.000000
0
VERTEX
8
TRAV_149
10
1590.000000
20
0.000000
30
648.500125
0
SEQEND
0
POLYLINE
8
TRAV_149
62
0
66
1
70
9
0
VERTEX
8
TRAV_149
10
1670.000000
20
0.007524
30
647.724344
0
VERTEX
8
TRAV_149
10
1670.000000
20
0.000000
30
648.500125
0
VERTEX
8
TRAV_149
10
1590.000000
20
0.000000
30
648.500125
0
VERTEX
8
TRAV_149
10
1590.000000
20
0.007524
30
647.724344
0
SEQEND
0
POLYLINE
8
TRAV_149
62
0
66
1
70
9
0
VERTEX
8
TRAV_149
10
1670.000000
20
0.030092
30
646.948855
0
VERTEX
8
TRAV_149
10
1670.000000
20
0.007524
30
647.724344
0
VERTEX
8
TRAV_149
10
1590.000000
20
0.007524
30
647.724344
0
VERTEX
8
TRAV_149
10
1590.000000
20
0.030092
30
646.948855
0
SEQEND
0
POLYLINE
8
TRAV_149
62
0
66
1
70
9
0
VERTEX
8
TRAV_149
10
1670.000000
20
0.067696
30
646.173950
0
VERTEX
8
TRAV_149
10
1670.000000
20
0.030092
30
646.948855
0
VERTEX
8
TRAV_149
10
1590.000000
20
0.030092
30
646.948855
0
VERTEX
8
TRAV_149
10
1590.000000
20
0.067696
30
646.173950
0
SEQEND
0
POLYLINE
8
TRAV_149
62
0
66
1
70
9
0
VERTEX
8
TRAV_149
10
1670.000000
20
0.120322
30
645.399919
0
VERTEX
8
TRAV_149
10
1670.000000
20
0.067696
30
646.173950
0
VERTEX
8
TRAV_149
10
1590.000000
20
0.067696
30
646.173950
0
VERTEX
8
TRAV_149
10
1590.000000
20
0.120322
30
645.399919
0
SEQEND
0
POLYLINE
8
TRAV_149
62
0
66
1
70
9
0
VERTEX
8
TRAV_149
10
1670.000000
20
0.187950
30
644.627055
0
VERTEX
8
TRAV_149
10
1670.000000
20
0.120322
30
645.399919
0
VERTEX
8
TRAV_149
10
1590.000000
20
0.120322
30
645.399919
0
VERTEX
8
TRAV_149
10
1590.000000
20
0.187950
30
644.627055
0
SEQEND
0
POLYLINE
8
TRAV_149
62
0
66
1
70
9
0
VERTEX
8
TRAV_149
10
1670.000000
20
0.270555
30
643.855648
0
VERTEX
8
TRAV_149
10
1670.000000
20
0.187950
30
644.627055
0
VERTEX
8
TRAV_149
10
1590.000000
20
0.187950
30
644.627055
0
VERTEX
8
TRAV_149
10
1590.000000
20
0.270555
30
643.855648
0
SEQEND
0
POLYLINE
8
TRAV_149
62
0
66
1
70
9
0
VERTEX
8
TRAV_149
10
1670.000000
20
0.368105
30
643.085988
0
VERTEX
8
TRAV_149
10
1670.000000
20
0.270555
30
643.855648
0
VERTEX
8
TRAV_149
10
1590.000000
20
0.270555
30
643.855648
0
VERTEX
8
TRAV_149
10
1590.000000
20
0.368105
30
643.085988
0
SEQEND
0
POLYLINE
8
TRAV_149
62
0
66
1
70
9
0
VERTEX
8
TRAV_149
10
1670.000000
20
0.480564
30
642.318365
0
VERTEX
8
TRAV_149
10
1670.000000
20
0.368105
30
643.085988
0
VERTEX
8
TRAV_149
10
1590.000000
20
0.368105
30
643.085988
0
VERTEX
8
TRAV_149
10
1590.000000
20
0.480564
30
642.318365
0
SEQEND
0
POLYLINE
8
TRAV_149
62
0
66
1
70
9
0
VERTEX
8
TRAV_149
10
1670.000000
20
0.607889
30
641.553067
0
VERTEX
8
TRAV_149
10
1670.000000
20
0.480564
30
642.318365
0
VERTEX
8
TRAV_149
10
1590.000000
20
0.480564
30
642.318365
0
VERTEX
8
TRAV_149
10
1590.000000
20
0.607889
30
641.553067
0
SEQEND
0
POLYLINE
8
TRAV_149
62
0
66
1
70
9
0
VERTEX
8
TRAV_149
10
1670.000000
20
927.597625
30
37.311499
0
VERTEX
8
TRAV_149
10
1670.000000
20
1034.513848
30
643.663532
0
VERTEX
8
TRAV_149
10
1590.000000
20
1034.513848
30
643.663532
0
VERTEX
8
TRAV_149
10
1590.000000
20
927.597625
30
37.311499
0
SEQEND
0
POLYLINE
8
TRAV_149
62
0
66
1
70
9
0
VERTEX
8
TRAV_149
10
1670.000000
20
1035.000000
30
649.220274
0
VERTEX
8
TRAV_149
10
1670.000000
20
1035.000000
30
750.000000
0
VERTEX
8
TRAV_149
10
1590.000000
20
1035.000000
30
750.000000
0
VERTEX
8
TRAV_149
10
1590.000000
20
1035.000000
30
649.220274
0
SEQEND
0
POLYLINE
8
TRAV_149
62
0
66
1
70
9
0
VERTEX
8
TRAV_149
10
1590.000000
20
1034.615675
30
644.275673
0
VERTEX
8
TRAV_149
10
1590.000000
20
1034.513848
30
643.663532
0
VERTEX
8
TRAV_149
10
1670.000000
20
1034.513848
30
643.663532
0
VERTEX
8
TRAV_149
10
1670.000000
20
1034.615675
30
644.275673
0
SEQEND
0
POLYLINE
8
TRAV_149
62
0
66
1
70
9
0
VERTEX
8
TRAV_149
10
1590.000000
20
1035.000000
30
649.220274
0
VERTEX
8
TRAV_149
10
1590.000000
20
1034.993983
30
648.599752
0
VERTEX
8
TRAV_149
10
1670.000000
20
1034.993983
30
648.599752
0
VERTEX
8
TRAV_149
10
1670.000000
20
1035.000000
30
649.220274
0
SEQEND
0
POLYLINE
8
TRAV_149
62
0
66
1
70
9
0
VERTEX
8
TRAV_149
10
1590.000000
20
941.350466
30
28.921324
0
VERTEX
8
TRAV_149
10
1590.000000
20
1049.392111
30
641.553067
0
VERTEX
8
TRAV_149
10
1670.000000
20
1049.392111
30
641.553067
0
VERTEX
8
TRAV_149
10
1670.000000
20
941.350466
30
28.921324
0
SEQEND
0
POLYLINE
8
TRAV_149
62
0
66
1
70
9
0
VERTEX
8
TRAV_149
10
1590.000000
20
1050.000000
30
648.500125
0
VERTEX
8
TRAV_149
10
1590.000000
20
1050.000000
30
750.000000
0
VERTEX
8
TRAV_149
10
1670.000000
20
1050.000000
30
750.000000
0
VERTEX
8
TRAV_149
10
1670.000000
20
1050.000000
30
648.500125
0
SEQEND
0
POLYLINE
8
TRAV_149
62
0
66
1
70
9
0
VERTEX
8
TRAV_149
10
1590.000000
20
1049.992476
30
647.724344
0
VERTEX
8
TRAV_149
10
1590.000000
20
1050.000000
30
648.500125
0
VERTEX
8
TRAV_149
10
1670.000000
20
1050.000000
30
648.500125
0
VERTEX
8
TRAV_149
10
1670.000000
20
1049.992476
30
647.724344
0
SEQEND
0
POLYLINE
8
TRAV_149
62
0
66
1
70
9
0
VERTEX
8
TRAV_149
10
1590.000000
20
1049.969908
30
646.948855
0
VERTEX
8
TRAV_149
10
1590.000000
20
1049.992476
30
647.724344
0
VERTEX
8
TRAV_149
10
1670.000000
20
1049.992476
30
647.724344
0
VERTEX
8
TRAV_149
10
1670.000000
20
1049.969908
30
646.948855
0
SEQEND
0
POLYLINE
8
TRAV_149
62
0
66
1
70
9
0
VERTEX
8
TRAV_149
10
1590.000000
20
1049.932304
30
646.173950
0
VERTEX
8
TRAV_149
10
1590.000000
20
1049.969908
30
646.948855
0
VERTEX
8
TRAV_149
10
1670.000000
20
1049.969908
30
646.948855
0
VERTEX
8
TRAV_149
10
1670.000000
20
1049.932304
30
646.173950
0
SEQEND
0
POLYLINE
8
TRAV_149
62
0
66
1
70
9
0
VERTEX
8
TRAV_149
10
1590.000000
20
1049.879678
30
645.399919
0
VERTEX
8
TRAV_149
10
1590.000000
20
1049.932304
30
646.173950
0
VERTEX
8
TRAV_149
10
1670.000000
20
1049.932304
30
646.173950
0
VERTEX
8
TRAV_149
10
1670.000000
20
1049.879678
30
645.399919
0
SEQEND
0
POLYLINE
8
TRAV_149
62
0
66
1
70
9
0
VERTEX
8
TRAV_149
10
1590.000000
20
1049.812050
30
644.627055
0
VERTEX
8
TRAV_149
10
1590.000000
20
1049.879678
30
645.399919
0
VERTEX
8
TRAV_149
10
1670.000000
20
1049.879678
30
645.399919
0
VERTEX
8
TRAV_149
10
1670.000000
20
1049.812050
30
644.627055
0
SEQEND
0
POLYLINE
8
TRAV_149
62
0
66
1
70
9
0
VERTEX
8
TRAV_149
10
1590.000000
20
1049.729445
30
643.855648
0
VERTEX
8
TRAV_149
10
1590.000000
20
1049.812050
30
644.627055
0
VERTEX
8
TRAV_149
10
1670.000000
20
1049.812050
30
644.627055
0
VERTEX
8
TRAV_149
10
1670.000000
20
1049.729445
30
643.855648
0
SEQEND
0
POLYLINE
8
TRAV_149
62
0
66
1
70
9
0
VERTEX
8
TRAV_149
10
1590.000000
20
1049.631895
30
643.085988
0
VERTEX
8
TRAV_149
10
1590.000000
20
1049.729445
30
643.855648
0
VERTEX
8
TRAV_149
10
1670.000000
20
1049.729445
30
643.855648
0
VERTEX
8
TRAV_149
10
1670.000000
20
1049.631895
30
643.085988
0
SEQEND
0
POLYLINE
8
TRAV_149
62
0
66
1
70
9
0
VERTEX
8
TRAV_149
10
1590.000000
20
1049.519436
30
642.318365
0
VERTEX
8
TRAV_149
10
1590.000000
20
1049.631895
30
643.085988
0
VERTEX
8
TRAV_149
10
1670.000000
20
1049.631895
30
643.085988
0
VERTEX
8
TRAV_149
10
1670.000000
20
1049.519436
30
642.318365
0
SEQEND
0
POLYLINE
8
TRAV_149
62
0
66
1
70
9
0
VERTEX
8
TRAV_149
10
1590.000000
20
1049.392111
30
641.553067
0
VERTEX
8
TRAV_149
10
1590.000000
20
1049.519436
30
642.318365
0
VERTEX
8
TRAV_149
10
1670.000000
20
1049.519436
30
642.318365
0
VERTEX
8
TRAV_149
10
1670.000000
20
1049.392111
30
641.553067
0
SEQEND
0
POLYLINE
8
TRAV_149
62
0
66
1
70
9
0
VERTEX
8
TRAV_149
10
1670.000000
20
148.992185
30
15.000000
0
VERTEX
8
TRAV_149
10
1670.000000
20
901.007815
30
15.000000
0
VERTEX
8
TRAV_149
10
1590.000000
20
901.007815
30
15.000000
0
VERTEX
8
TRAV_149
10
1590.000000
20
148.992185
30
15.000000
0
SEQEND
0
POLYLINE
8
TRAV_149
62
0
66
1
70
9
0
VERTEX
8
TRAV_149
10
1670.000000
20
144.820177
30
15.324274
0
VERTEX
8
TRAV_149
10
1670.000000
20
148.992185
30
15.000000
0
VERTEX
8
TRAV_149
10
1590.000000
20
148.992185
30
15.000000
0
VERTEX
8
TRAV_149
10
1590.000000
20
144.820177
30
15.324274
0
SEQEND
0
POLYLINE
8
TRAV_149
62
0
66
1
70
9
0
VERTEX
8
TRAV_149
10
1670.000000
20
122.402375
30
37.311499
0
VERTEX
8
TRAV_149
10
1670.000000
20
123.446184
30
33.259184
0
VERTEX
8
TRAV_149
10
1590.000000
20
123.446184
30
33.259184
0
VERTEX
8
TRAV_149
10
1590.000000
20
122.402375
30
37.311499
0
SEQEND
0
POLYLINE
8
TRAV_149
62
0
66
1
70
9
0
VERTEX
8
TRAV_149
10
1590.000000
20
905.179823
30
15.324274
0
VERTEX
8
TRAV_149
10
1590.000000
20
901.007815
30
15.000000
0
VERTEX
8
TRAV_149
10
1670.000000
20
901.007815
30
15.000000
0
VERTEX
8
TRAV_149
10
1670.000000
20
905.179823
30
15.324274
0
SEQEND
0
POLYLINE
8
TRAV_149
62
0
66
1
70
9
0
VERTEX
8
TRAV_149
10
1590.000000
20
927.597625
30
37.311499
0
VERTEX
8
TRAV_149
10
1590.000000
20
926.553816
30
33.259184
0
VERTEX
8
TRAV_149
10
1670.000000
20
926.553816
30
33.259184
0
VERTEX
8
TRAV_149
10
1670.000000
20
927.597625
30
37.311499
0
SEQEND
0
POLYLINE
8
TRAV_149
62
0
66
1
70
9
0
VERTEX
8
TRAV_149
10
1590.000000
20
143.117631
30
0.000000
0
VERTEX
8
TRAV_149
10
1590.000000
20
906.882369
30
-0.000000
0
VERTEX
8
TRAV_149
10
1670.000000
20
906.882369
30
-0.000000
0
VERTEX
8
TRAV_149
10
1670.000000
20
143.117631
30
0.000000
0
SEQEND
0
POLYLINE
8
TRAV_149
62
0
66
1
70
9
0
VERTEX
8
TRAV_149
10
1590.000000
20
939.997266
30
23.668467
0
VERTEX
8
TRAV_149
10
1590.000000
20
941.350466
30
28.921324
0
VERTEX
8
TRAV_149
10
1670.000000
20
941.350466
30
28.921324
0
VERTEX
8
TRAV_149
10
1670.000000
20
939.997266
30
23.668467
0
SEQEND
0
POLYLINE
8
TRAV_149
62
0
66
1
70
9
0
VERTEX
8
TRAV_149
10
1590.000000
20
937.848668
30
18.687785
0
VERTEX
8
TRAV_149
10
1590.000000
20
939.997266
30
23.668467
0
VERTEX
8
TRAV_149
10
1670.000000
20
939.997266
30
23.668467
0
VERTEX
8
TRAV_149
10
1670.000000
20
937.848668
30
18.687785
0
SEQEND
0
POLYLINE
8
TRAV_149
62
0
66
1
70
9
0
VERTEX
8
TRAV_149
10
1590.000000
20
934.956281
30
14.098912
0
VERTEX
8
TRAV_149
10
1590.000000
20
937.848668
30
18.687785
0
VERTEX
8
TRAV_149
10
1670.000000
20
937.848668
30
18.687785
0
VERTEX
8
TRAV_149
10
1670.000000
20
934.956281
30
14.098912
0
SEQEND
0
POLYLINE
8
TRAV_149
62
0
66
1
70
9
0
VERTEX
8
TRAV_149
10
1590.000000
20
931.389578
30
10.012068
0
VERTEX
8
TRAV_149
10
1590.000000
20
934.956281
30
14.098912
0
VERTEX
8
TRAV_149
10
1670.000000
20
934.956281
30
14.098912
0
VERTEX
8
TRAV_149
10
1670.000000
20
931.389578
30
10.012068
0
SEQEND
0
POLYLINE
8
TRAV_149
62
0
66
1
70
9
0
VERTEX
8
TRAV_149
10
1590.000000
20
927.234228
30
6.525418
0
VERTEX
8
TRAV_149
10
1590.000000
20
931.389578
30
10.012068
0
VERTEX
8
TRAV_149
10
1670.000000
20
931.389578
30
10.012068
0
VERTEX
8
TRAV_149
10
1670.000000
20
927.234228
30
6.525418
0
SEQEND
0
POLYLINE
8
TRAV_149
62
0
66
1
70
9
0
VERTEX
8
TRAV_149
10
1590.000000
20
922.590041
30
3.722707
0
VERTEX
8
TRAV_149
10
1590.000000
20
927.234228
30
6.525418
0
VERTEX
8
TRAV_149
10
1670.000000
20
927.234228
30
6.525418
0
VERTEX
8
TRAV_149
10
1670.000000
20
922.590041
30
3.722707
0
SEQEND
0
POLYLINE
8
TRAV_149
62
0
66
1
70
9
0
VERTEX
8
TRAV_149
10
1590.000000
20
917.568566
30
1.671256
0
VERTEX
8
TRAV_149
10
1590.000000
20
922.590041
30
3.722707
0
VERTEX
8
TRAV_149
10
1670.000000
20
922.590041
30
3.722707
0
VERTEX
8
TRAV_149
10
1670.000000
20
917.568566
30
1.671256
0
SEQEND
0
POLYLINE
8
TRAV_149
62
0
66
1
70
9
0
VERTEX
8
TRAV_149
10
1590.000000
20
912.290417
30
0.420338
0
VERTEX
8
TRAV_149
10
1590.000000
20
917.568566
30
1.671256
0
VERTEX
8
TRAV_149
10
1670.000000
20
917.568566
30
1.671256
0
VERTEX
8
TRAV_149
10
1670.000000
20
912.290417
30
0.420338
0
SEQEND
0
POLYLINE
8
TRAV_149
62
0
66
1
70
9
0
VERTEX
8
TRAV_149
10
1590.000000
20
906.882369
30
-0.000000
0
VERTEX
8
TRAV_149
10
1590.000000
20
912.290417
30
0.420338
0
VERTEX
8
TRAV_149
10
1670.000000
20
912.290417
30
0.420338
0
VERTEX
8
TRAV_149
10
1670.000000
20
906.882369
30
-0.000000
0
SEQEND
0
POLYLINE
8
TRAV_149
62
0
66
1
70
9
0
VERTEX
8
TRAV_149
10
1590.000000
20
137.709583
30
0.420338
0
VERTEX
8
TRAV_149
10
1590.000000
20
143.117631
30
0.000000
0
VERTEX
8
TRAV_149
10
1670.000000
20
143.117631
30
0.000000
0
VERTEX
8
TRAV_149
10
1670.000000
20
137.709583
30
0.420338
0
SEQEND
0
POLYLINE
8
TRAV_149
62
0
66
1
70
9
0
VERTEX
8
TRAV_149
10
1590.000000
20
132.431434
30
1.671256
0
VERTEX
8
TRAV_149
10
1590.000000
20
137.709583
30
0.420338
0
VERTEX
8
TRAV_149
10
1670.000000
20
137.709583
30
0.420338
0
VERTEX
8
TRAV_149
10
1670.000000
20
132.431434
30
1.671256
0
SEQEND
0
POLYLINE
8
TRAV_149
62
0
66
1
70
9
0
VERTEX
8
TRAV_149
10
1590.000000
20
127.409959
30
3.722707
0
VERTEX
8
TRAV_149
10
1590.000000
20
132.431434
30
1.671256
0
VERTEX
8
TRAV_149
10
1670.000000
20
132.431434
30
1.671256
0
VERTEX
8
TRAV_149
10
1670.000000
20
127.409959
30
3.722707
0
SEQEND
0
POLYLINE
8
TRAV_149
62
0
66
1
70
9
0
VERTEX
8
TRAV_149
10
1590.000000
20
122.765772
30
6.525418
0
VERTEX
8
TRAV_149
10
1590.000000
20
127.409959
30
3.722707
0
VERTEX
8
TRAV_149
10
1670.000000
20
127.409959
30
3.722707
0
VERTEX
8
TRAV_149
10
1670.000000
20
122.765772
30
6.525418
0
SEQEND
0
POLYLINE
8
TRAV_149
62
0
66
1
70
9
0
VERTEX
8
TRAV_149
10
1590.000000
20
118.610422
30
10.012068
0
VERTEX
8
TRAV_149
10
1590.000000
20
122.765772
30
6.525418
0
VERTEX
8
TRAV_149
10
1670.000000
20
122.765772
30
6.525418
0
VERTEX
8
TRAV_149
10
1670.000000
20
118.610422
30
10.012068
0
SEQEND
0
POLYLINE
8
TRAV_149
62
0
66
1
70
9
0
VERTEX
8
TRAV_149
10
1590.000000
20
115.043719
30
14.098912
0
VERTEX
8
TRAV_149
10
1590.000000
20
118.610422
30
10.012068
0
VERTEX
8
TRAV_149
10
1670.000000
20
118.610422
30
10.012068
0
VERTEX
8
TRAV_149
10
1670.000000
20
115.043719
30
14.098912
0
SEQEND
0
POLYLINE
8
TRAV_149
62
0
66
1
70
9
0
VERTEX
8
TRAV_149
10
1590.000000
20
112.151332
30
18.687785
0
VERTEX
8
TRAV_149
10
1590.000000
20
115.043719
30
14.098912
0
VERTEX
8
TRAV_149
10
1670.000000
20
115.043719
30
14.098912
0
VERTEX
8
TRAV_149
10
1670.000000
20
112.151332
30
18.687785
0
SEQEND
0
POLYLINE
8
TRAV_149
62
0
66
1
70
9
0
VERTEX
8
TRAV_149
10
1590.000000
20
110.002734
30
23.668467
0
VERTEX
8
TRAV_149
10
1590.000000
20
112.151332
30
18.687785
0
VERTEX
8
TRAV_149
10
1670.000000
20
112.151332
30
18.687785
0
VERTEX
8
TRAV_149
10
1670.000000
20
110.002734
30
23.668467
0
SEQEND
0
POLYLINE
8
TRAV_149
62
0
66
1
70
9
0
VERTEX
8
TRAV_149
10
1590.000000
20
108.649534
30
28.921324
0
VERTEX
8
TRAV_149
10
1590.000000
20
110.002734
30
23.668467
0
VERTEX
8
TRAV_149
10
1670.000000
20
110.002734
30
23.668467
0
VERTEX
8
TRAV_149
10
1670.000000
20
108.649534
30
28.921324
0
SEQEND
0
POLYLINE
8
TRAV_149
62
0
66
1
70
9
0
VERTEX
8
TRAV_149
10
1590.000000
20
1035.000000
30
750.000000
0
VERTEX
8
TRAV_149
10
1670.000000
20
1035.000000
30
750.000000
0
VERTEX
8
TRAV_149
10
1670.000000
20
1050.000000
30
750.000000
0
VERTEX
8
TRAV_149
10
1590.000000
20
1050.000000
30
750.000000
0
SEQEND
0
POLYLINE
8
TRAV_149
62
0
66
1
70
9
0
VERTEX
8
TRAV_149
10
1590.000000
20
0.000000
30
750.000000
0
VERTEX
8
TRAV_149
10
1670.000000
20
0.000000
30
750.000000
0
VERTEX
8
TRAV_149
10
1670.000000
20
15.000000
30
750.000000
0
VERTEX
8
TRAV_149
10
1590.000000
20
15.000000
30
750.000000
0
SEQEND
0
POLYLINE
8
TRAV_149
62
0
66
1
70
9
0
VERTEX
8
TRAV_149
10
1590.000000
20
909.251617
30
16.289307
0
VERTEX
8
TRAV_149
10
1590.000000
20
905.179823
30
15.324274
0
VERTEX
8
TRAV_149
10
1670.000000
20
905.179823
30
15.324274
0
SEQEND
0
POLYLINE
8
TRAV_149
62
0
66
1
70
9
0
VERTEX
8
TRAV_149
10
1670.000000
20
909.251617
30
16.289307
0
VERTEX
8
TRAV_149
10
1590.000000
20
909.251617
30
16.289307
0
VERTEX
8
TRAV_149
10
1670.000000
20
905.179823
30
15.324274
0
SEQEND
0
POLYLINE
8
TRAV_149
62
0
66
1
70
9
0
VERTEX
8
TRAV_149
10
1590.000000
20
913.125393
30
17.871919
0
VERTEX
8
TRAV_149
10
1590.000000
20
909.251617
30
16.289307
0
VERTEX
8
TRAV_149
10
1670.000000
20
909.251617
30
16.289307
0
SEQEND
0
POLYLINE
8
TRAV_149
62
0
66
1
70
9
0
VERTEX
8
TRAV_149
10
1670.000000
20
913.125393
30
17.871919
0
VERTEX
8
TRAV_149
10
1590.000000
20
913.125393
30
17.871919
0
VERTEX
8
TRAV_149
10
1670.000000
20
909.251617
30
16.289307
0
SEQEND
0
POLYLINE
8
TRAV_149
62
0
66
1
70
9
0
VERTEX
8
TRAV_149
10
1590.000000
20
916.708101
30
20.034094
0
VERTEX
8
TRAV_149
10
1590.000000
20
913.125393
30
17.871919
0
VERTEX
8
TRAV_149
10
1670.000000
20
913.125393
30
17.871919
0
SEQEND
0
POLYLINE
8
TRAV_149
62
0
66
1
70
9
0
VERTEX
8
TRAV_149
10
1670.000000
20
916.708101
30
20.034094
0
VERTEX
8
TRAV_149
10
1590.000000
20
916.708101
30
20.034094
0
VERTEX
8
TRAV_149
10
1670.000000
20
913.125393
30
17.871919
0
SEQEND
0
POLYLINE
8
TRAV_149
62
0
66
1
70
9
0
VERTEX
8
TRAV_149
10
1590.000000
20
919.913684
30
22.723897
0
VERTEX
8
TRAV_149
10
1590.000000
20
916.708101
30
20.034094
0
VERTEX
8
TRAV_149
10
1670.000000
20
916.708101
30
20.034094
0
SEQEND
0
POLYLINE
8
TRAV_149
62
0
66
1
70
9
0
VERTEX
8
TRAV_149
10
1670.000000
20
919.913684
30
22.723897
0
VERTEX
8
TRAV_149
10
1590.000000
20
919.913684
30
22.723897
0
VERTEX
8
TRAV_149
10
1670.000000
20
916.708101
30
20.034094
0
SEQEND
0
POLYLINE
8
TRAV_149
62
0
66
1
70
9
0
VERTEX
8
TRAV_149
10
1590.000000
20
922.665142
30
25.876718
0
VERTEX
8
TRAV_149
10
1590.000000
20
919.913684
30
22.723897
0
VERTEX
8
TRAV_149
10
1670.000000
20
919.913684
30
22.723897
0
SEQEND
0
POLYLINE
8
TRAV_149
62
0
66
1
70
9
0
VERTEX
8
TRAV_149
10
1670.000000
20
922.665142
30
25.876718
0
VERTEX
8
TRAV_149
10
1590.000000
20
922.665142
30
25.876718
0
VERTEX
8
TRAV_149
10
1670.000000
20
919.913684
30
22.723897
0
SEQEND
0
POLYLINE
8
TRAV_149
62
0
66
1
70
9
0
VERTEX
8
TRAV_149
10
1590.000000
20
924.896384
30
29.416825
0
VERTEX
8
TRAV_149
10
1590.000000
20
922.665142
30
25.876718
0
VERTEX
8
TRAV_149
10
1670.000000
20
922.665142
30
25.876718
0
SEQEND
0
POLYLINE
8
TRAV_149
62
0
66
1
70
9
0
VERTEX
8
TRAV_149
10
1670.000000
20
924.896384
30
29.416825
0
VERTEX
8
TRAV_149
10
1590.000000
20
924.896384
30
29.416825
0
VERTEX
8
TRAV_149
10
1670.000000
20
922.665142
30
25.876718
0
SEQEND
0
POLYLINE
8
TRAV_149
62
0
66
1
70
9
0
VERTEX
8
TRAV_149
10
1590.000000
20
926.553816
30
33.259184
0
VERTEX
8
TRAV_149
10
1590.000000
20
924.896384
30
29.416825
0
VERTEX
8
TRAV_149
10
1670.000000
20
924.896384
30
29.416825
0
SEQEND
0
POLYLINE
8
TRAV_149
62
0
66
1
70
9
0
VERTEX
8
TRAV_149
10
1670.000000
20
926.553816
30
33.259184
0
VERTEX
8
TRAV_149
10
1590.000000
20
926.553816
30
33.259184
0
VERTEX
8
TRAV_149
10
1670.000000
20
924.896384
30
29.416825
0
SEQEND
0
POLYLINE
8
TRAV_149
62
0
66
1
70
9
0
VERTEX
8
TRAV_149
10
1670.000000
20
140.748383
30
16.289307
0
VERTEX
8
TRAV_149
10
1670.000000
20
144.820177
30
15.324274
0
VERTEX
8
TRAV_149
10
1590.000000
20
144.820177
30
15.324274
0
SEQEND
0
POLYLINE
8
TRAV_149
62
0
66
1
70
9
0
VERTEX
8
TRAV_149
10
1590.000000
20
140.748383
30
16.289307
0
VERTEX
8
TRAV_149
10
1670.000000
20
140.748383
30
16.289307
0
VERTEX
8
TRAV_149
10
1590.000000
20
144.820177
30
15.324274
0
SEQEND
0
POLYLINE
8
TRAV_149
62
0
66
1
70
9
0
VERTEX
8
TRAV_149
10
1670.000000
20
136.874607
30
17.871919
0
VERTEX
8
TRAV_149
10
1670.000000
20
140.748383
30
16.289307
0
VERTEX
8
TRAV_149
10
1590.000000
20
140.748383
30
16.289307
0
SEQEND
0
POLYLINE
8
TRAV_149
62
0
66
1
70
9
0
VERTEX
8
TRAV_149
10
1590.000000
20
136.874607
30
17.871919
0
VERTEX
8
TRAV_149
10
1670.000000
20
136.874607
30
17.871919
0
VERTEX
8
TRAV_149
10
1590.000000
20
140.748383
30
16.289307
0
SEQEND
0
POLYLINE
8
TRAV_149
62
0
66
1
70
9
0
VERTEX
8
TRAV_149
10
1670.000000
20
133.291899
30
20.034094
0
VERTEX
8
TRAV_149
10
1670.000000
20
136.874607
30
17.871919
0
VERTEX
8
TRAV_149
10
1590.000000
20
136.874607
30
17.871919
0
SEQEND
0
POLYLINE
8
TRAV_149
62
0
66
1
70
9
0
VERTEX
8
TRAV_149
10
1590.000000
20
133.291899
30
20.034094
0
VERTEX
8
TRAV_149
10
1670.000000
20
133.291899
30
20.034094
0
VERTEX
8
TRAV_149
10
1590.000000
20
136.874607
30
17.871919
0
SEQEND
0
POLYLINE
8
TRAV_149
62
0
66
1
70
9
0
VERTEX
8
TRAV_149
10
1670.000000
20
130.086316
30
22.723897
0
VERTEX
8
TRAV_149
10
1670.000000
20
133.291899
30
20.034094
0
VERTEX
8
TRAV_149
10
1590.000000
20
133.291899
30
20.034094
0
SEQEND
0
POLYLINE
8
TRAV_149
62
0
66
1
70
9
0
VERTEX
8
TRAV_149
10
1590.000000
20
130.086316
30
22.723897
0
VERTEX
8
TRAV_149
10
1670.000000
20
130.086316
30
22.723897
0
VERTEX
8
TRAV_149
10
1590.000000
20
133.291899
30
20.034094
0
SEQEND
0
POLYLINE
8
TRAV_149
62
0
66
1
70
9
0
VERTEX
8
TRAV_149
10
1670.000000
20
127.334858
30
25.876718
0
VERTEX
8
TRAV_149
10
1670.000000
20
130.086316
30
22.723897
0
VERTEX
8
TRAV_149
10
1590.000000
20
130.086316
30
22.723897
0
SEQEND
0
POLYLINE
8
TRAV_149
62
0
66
1
70
9
0
VERTEX
8
TRAV_149
10
1590.000000
20
127.334858
30
25.876718
0
VERTEX
8
TRAV_149
10
1670.000000
20
127.334858
30
25.876718
0
VERTEX
8
TRAV_149
10
1590.000000
20
130.086316
30
22.723897
0
SEQEND
0
POLYLINE
8
TRAV_149
62
0
66
1
70
9
0
VERTEX
8
TRAV_149
10
1670.000000
20
125.103616
30
29.416825
0
VERTEX
8
TRAV_149
10
1670.000000
20
127.334858
30
25.876718
0
VERTEX
8
TRAV_149
10
1590.000000
20
127.334858
30
25.876718
0
SEQEND
0
POLYLINE
8
TRAV_149
62
0
66
1
70
9
0
VERTEX
8
TRAV_149
10
1590.000000
20
125.103616
30
29.416825
0
VERTEX
8
TRAV_149
10
1670.000000
20
125.103616
30
29.416825
0
VERTEX
8
TRAV_149
10
1590.000000
20
127.334858
30
25.876718
0
SEQEND
0
POLYLINE
8
TRAV_149
62
0
66
1
70
9
0
VERTEX
8
TRAV_149
10
1670.000000
20
123.446184
30
33.259184
0
VERTEX
8
TRAV_149
10
1670.000000
20
125.103616
30
29.416825
0
VERTEX
8
TRAV_149
10
1590.000000
20
125.103616
30
29.416825
0
SEQEND
0
POLYLINE
8
TRAV_149
62
0
66
1
70
9
0
VERTEX
8
TRAV_149
10
1590.000000
20
123.446184
30
33.259184
0
VERTEX
8
TRAV_149
10
1670.000000
20
123.446184
30
33.259184
0
VERTEX
8
TRAV_149
10
1590.000000
20
125.103616
30
29.416825
0
SEQEND
0
POLYLINE
8
TRAV_149
62
0
66
1
70
9
0
VERTEX
8
TRAV_149
10
1590.000000
20
1034.705613
30
644.889673
0
VERTEX
8
TRAV_149
10
1590.000000
20
1034.615675
30
644.275673
0
VERTEX
8
TRAV_149
10
1670.000000
20
1034.615675
30
644.275673
0
SEQEND
0
POLYLINE
8
TRAV_149
62
0
66
1
70
9
0
VERTEX
8
TRAV_149
10
1670.000000
20
1034.705613
30
644.889673
0
VERTEX
8
TRAV_149
10
1590.000000
20
1034.705613
30
644.889673
0
VERTEX
8
TRAV_149
10
1670.000000
20
1034.615675
30
644.275673
0
SEQEND
0
POLYLINE
8
TRAV_149
62
0
66
1
70
9
0
VERTEX
8
TRAV_149
10
1590.000000
20
1034.783627
30
645.505301
0
VERTEX
8
TRAV_149
10
1590.000000
20
1034.705613
30
644.889673
0
VERTEX
8
TRAV_149
10
1670.000000
20
1034.705613
30
644.889673
0
SEQEND
0
POLYLINE
8
TRAV_149
62
0
66
1
70
9
0
VERTEX
8
TRAV_149
10
1670.000000
20
1034.783627
30
645.505301
0
VERTEX
8
TRAV_149
10
1590.000000
20
1034.783627
30
645.505301
0
VERTEX
8
TRAV_149
10
1670.000000
20
1034.705613
30
644.889673
0
SEQEND
0
POLYLINE
8
TRAV_149
62
0
66
1
70
9
0
VERTEX
8
TRAV_149
10
1590.000000
20
1034.849689
30
646.122326
0
VERTEX
8
TRAV_149
10
1590.000000
20
1034.783627
30
645.505301
0
VERTEX
8
TRAV_149
10
1670.000000
20
1034.783627
30
645.505301
0
SEQEND
0
POLYLINE
8
TRAV_149
62
0
66
1
70
9
0
VERTEX
8
TRAV_149
10
1670.000000
20
1034.849689
30
646.122326
0
VERTEX
8
TRAV_149
10
1590.000000
20
1034.849689
30
646.122326
0
VERTEX
8
TRAV_149
10
1670.000000
20
1034.783627
30
645.505301
0
SEQEND
0
POLYLINE
8
TRAV_149
62
0
66
1
70
9
0
VERTEX
8
TRAV_149
10
1590.000000
20
1034.903774
30
646.740517
0
VERTEX
8
TRAV_149
10
1590.000000
20
1034.849689
30
646.122326
0
VERTEX
8
TRAV_149
10
1670.000000
20
1034.849689
30
646.122326
0
SEQEND
0
POLYLINE
8
TRAV_149
62
0
66
1
70
9
0
VERTEX
8
TRAV_149
10
1670.000000
20
1034.903774
30
646.740517
0
VERTEX
8
TRAV_149
10
1590.000000
20
1034.903774
30
646.740517
0
VERTEX
8
TRAV_149
10
1670.000000
20
1034.849689
30
646.122326
0
SEQEND
0
POLYLINE
8
TRAV_149
62
0
66
1
70
9
0
VERTEX
8
TRAV_149
10
1590.000000
20
1034.945861
30
647.359640
0
VERTEX
8
TRAV_149
10
1590.000000
20
1034.903774
30
646.740517
0
VERTEX
8
TRAV_149
10
1670.000000
20
1034.903774
30
646.740517
0
SEQEND
0
POLYLINE
8
TRAV_149
62
0
66
1
70
9
0
VERTEX
8
TRAV_149
10
1670.000000
20
1034.945861
30
647.359640
0
VERTEX
8
TRAV_149
10
1590.000000
20
1034.945861
30
647.359640
0
VERTEX
8
TRAV_149
10
1670.000000
20
1034.903774
30
646.740517
0
SEQEND
0
POLYLINE
8
TRAV_149
62
0
66
1
70
9
0
VERTEX
8
TRAV_149
10
1590.000000
20
1034.975934
30
647.979462
0
VERTEX
8
TRAV_149
10
1590.000000
20
1034.945861
30
647.359640
0
VERTEX
8
TRAV_149
10
1670.000000
20
1034.945861
30
647.359640
0
SEQEND
0
POLYLINE
8
TRAV_149
62
0
66
1
70
9
0
VERTEX
8
TRAV_149
10
1670.000000
20
1034.975934
30
647.979462
0
VERTEX
8
TRAV_149
10
1590.000000
20
1034.975934
30
647.979462
0
VERTEX
8
TRAV_149
10
1670.000000
20
1034.945861
30
647.359640
0
SEQEND
0
POLYLINE
8
TRAV_149
62
0
66
1
70
9
0
VERTEX
8
TRAV_149
10
1590.000000
20
1034.993983
30
648.599752
0
VERTEX
8
TRAV_149
10
1590.000000
20
1034.975934
30
647.979462
0
VERTEX
8
TRAV_149
10
1670.000000
20
1034.975934
30
647.979462
0
SEQEND
0
POLYLINE
8
TRAV_149
62
0
66
1
70
9
0
VERTEX
8
TRAV_149
10
1670.000000
20
1034.993983
30
648.599752
0
VERTEX
8
TRAV_149
10
1590.000000
20
1034.993983
30
648.599752
0
VERTEX
8
TRAV_149
10
1670.000000
20
1034.975934
30
647.979462
0
SEQEND
0
POLYLINE
8
TRAV_149
62
0
66
1
70
9
0
VERTEX
8
TRAV_149
10
1670.000000
20
15.294387
30
644.889673
0
VERTEX
8
TRAV_149
10
1670.000000
20
15.384325
30
644.275673
0
VERTEX
8
TRAV_149
10
1590.000000
20
15.384325
30
644.275673
0
SEQEND
0
POLYLINE
8
TRAV_149
62
0
66
1
70
9
0
VERTEX
8
TRAV_149
10
1590.000000
20
15.294387
30
644.889673
0
VERTEX
8
TRAV_149
10
1670.000000
20
15.294387
30
644.889673
0
VERTEX
8
TRAV_149
10
1590.000000
20
15.384325
30
644.275673
0
SEQEND
0
POLYLINE
8
TRAV_149
62
0
66
1
70
9
0
VERTEX
8
TRAV_149
10
1670.000000
20
15.216373
30
645.505301
0
VERTEX
8
TRAV_149
10
1670.000000
20
15.294387
30
644.889673
0
VERTEX
8
TRAV_149
10
1590.000000
20
15.294387
30
644.889673
0
SEQEND
0
POLYLINE
8
TRAV_149
62
0
66
1
70
9
0
VERTEX
8
TRAV_149
10
1590.000000
20
15.216373
30
645.505301
0
VERTEX
8
TRAV_149
10
1670.000000
20
15.216373
30
645.505301
0
VERTEX
8
TRAV_149
10
1590.000000
20
15.294387
30
644.889673
0
SEQEND
0
POLYLINE
8
TRAV_149
62
0
66
1
70
9
0
VERTEX
8
TRAV_149
10
1670.000000
20
15.150311
30
646.122326
0
VERTEX
8
TRAV_149
10
1670.000000
20
15.216373
30
645.505301
0
VERTEX
8
TRAV_149
10
1590.000000
20
15.216373
30
645.505301
0
SEQEND
0
POLYLINE
8
TRAV_149
62
0
66
1
70
9
0
VERTEX
8
TRAV_149
10
1590.000000
20
15.150311
30
646.122326
0
VERTEX
8
TRAV_149
10
1670.000000
20
15.150311
30
646.122326
0
VERTEX
8
TRAV_149
10
1590.000000
20
15.216373
30
645.505301
0
SEQEND
0
POLYLINE
8
TRAV_149
62
0
66
1
70
9
0
VERTEX
8
TRAV_149
10
1670.000000
20
15.096226
30
646.740517
0
VERTEX
8
TRAV_149
10
1670.000000
20
15.150311
30
646.122326
0
VERTEX
8
TRAV_149
10
1590.000000
20
15.150311
30
646.122326
0
SEQEND
0
POLYLINE
8
TRAV_149
62
0
66
1
70
9
0
VERTEX
8
TRAV_149
10
1590.000000
20
15.096226
30
646.740517
0
VERTEX
8
TRAV_149
10
1670.000000
20
15.096226
30
646.740517
0
VERTEX
8
TRAV_149
10
1590.000000
20
15.150311
30
646.122326
0
SEQEND
0
POLYLINE
8
TRAV_149
62
0
66
1
70
9
0
VERTEX
8
TRAV_149
10
1670.000000
20
15.054139
30
647.359640
0
VERTEX
8
TRAV_149
10
1670.000000
20
15.096226
30
646.740517
0
VERTEX
8
TRAV_149
10
1590.000000
20
15.096226
30
646.740517
0
SEQEND
0
POLYLINE
8
TRAV_149
62
0
66
1
70
9
0
VERTEX
8
TRAV_149
10
1590.000000
20
15.054139
30
647.359640
0
VERTEX
8
TRAV_149
10
1670.000000
20
15.054139
30
647.359640
0
VERTEX
8
TRAV_149
10
1590.000000
20
15.096226
30
646.740517
0
SEQEND
0
POLYLINE
8
TRAV_149
62
0
66
1
70
9
0
VERTEX
8
TRAV_149
10
1670.000000
20
15.024066
30
647.979462
0
VERTEX
8
TRAV_149
10
1670.000000
20
15.054139
30
647.359640
0
VERTEX
8
TRAV_149
10
1590.000000
20
15.054139
30
647.359640
0
SEQEND
0
POLYLINE
8
TRAV_149
62
0
66
1
70
9
0
VERTEX
8
TRAV_149
10
1590.000000
20
15.024066
30
647.979462
0
VERTEX
8
TRAV_149
10
1670.000000
20
15.024066
30
647.979462
0
VERTEX
8
TRAV_149
10
1590.000000
20
15.054139
30
647.359640
0
SEQEND
0
POLYLINE
8
TRAV_149
62
0
66
1
70
9
0
VERTEX
8
TRAV_149
10
1670.000000
20
15.006017
30
648.599752
0
VERTEX
8
TRAV_149
10
1670.000000
20
15.024066
30
647.979462
0
VERTEX
8
TRAV_149
10
1590.000000
20
15.024066
30
647.979462
0
SEQEND
0
POLYLINE
8
TRAV_149
62
0
66
1
70
9
0
VERTEX
8
TRAV_149
10
1590.000000
20
15.006017
30
648.599752
0
VERTEX
8
TRAV_149
10
1670.000000
20
15.006017
30
648.599752
0
VERTEX
8
TRAV_149
10
1590.000000
20
15.024066
30
647.979462
0
SEQEND
0
POLYLINE
8
TRAV_149
62
0
66
1
70
9
0
VERTEX
8
TRAV_149
10
100.000000
20
15.486152
30
643.663532
0
VERTEX
8
TRAV_149
10
100.000000
20
122.402375
30
37.311499
0
VERTEX
8
TRAV_149
10
20.000000
20
122.402375
30
37.311499
0
VERTEX
8
TRAV_149
10
20.000000
20
15.486152
30
643.663532
0
SEQEND
0
POLYLINE
8
TRAV_149
62
0
66
1
70
9
0
VERTEX
8
TRAV_149
10
20.000000
20
15.000000
30
649.220274
0
VERTEX
8
TRAV_149
10
20.000000
20
15.000000
30
750.000000
0
VERTEX
8
TRAV_149
10
100.000000
20
15.000000
30
750.000000
0
VERTEX
8
TRAV_149
10
100.000000
20
15.000000
30
649.220274
0
SEQEND
0
POLYLINE
8
TRAV_149
62
0
66
1
70
9
0
VERTEX
8
TRAV_149
10
100.000000
20
941.350466
30
28.921324
0
VERTEX
8
TRAV_149
10
100.000000
20
1049.392111
30
641.553067
0
VERTEX
8
TRAV_149
10
100.000000
20
1049.519436
30
642.318365
0
VERTEX
8
TRAV_149
10
100.000000
20
1049.631895
30
643.085988
0
VERTEX
8
TRAV_149
10
100.000000
20
1049.729445
30
643.855648
0
VERTEX
8
TRAV_149
10
100.000000
20
1049.812050
30
644.627055
0
VERTEX
8
TRAV_149
10
100.000000
20
1049.879678
30
645.399919
0
VERTEX
8
TRAV_149
10
100.000000
20
1049.932304
30
646.173950
0
VERTEX
8
TRAV_149
10
100.000000
20
1049.969908
30
646.948855
0
VERTEX
8
TRAV_149
10
100.000000
20
1049.992476
30
647.724344
0
VERTEX
8
TRAV_149
10
100.000000
20
1050.000000
30
648.500125
0
VERTEX
8
TRAV_149
10
100.000000
20
1050.000000
30
750.000000
0
VERTEX
8
TRAV_149
10
100.000000
20
1035.000000
30
750.000000
0
VERTEX
8
TRAV_149
10
100.000000
20
1035.000000
30
649.220274
0
VERTEX
8
TRAV_149
10
100.000000
20
1034.993983
30
648.599752
0
VERTEX
8
TRAV_149
10
100.000000
20
1034.975934
30
647.979462
0
VERTEX
8
TRAV_149
10
100.000000
20
1034.945861
30
647.359640
0
VERTEX
8
TRAV_149
10
100.000000
20
1034.903774
30
646.740517
0
VERTEX
8
TRAV_149
10
100.000000
20
1034.849689
30
646.122326
0
VERTEX
8
TRAV_149
10
100.000000
20
1034.783627
30
645.505301
0
VERTEX
8
TRAV_149
10
100.000000
20
1034.705613
30
644.889673
0
VERTEX
8
TRAV_149
10
100.000000
20
1034.615675
30
644.275673
0
VERTEX
8
TRAV_149
10
100.000000
20
1034.513848
30
643.663532
0
VERTEX
8
TRAV_149
10
100.000000
20
927.597625
30
37.311499
0
VERTEX
8
TRAV_149
10
100.000000
20
926.553816
30
33.259184
0
VERTEX
8
TRAV_149
10
100.000000
20
924.896384
30
29.416825
0
VERTEX
8
TRAV_149
10
100.000000
20
922.665142
30
25.876718
0
VERTEX
8
TRAV_149
10
100.000000
20
919.913684
30
22.723897
0
VERTEX
8
TRAV_149
10
100.000000
20
916.708101
30
20.034094
0
VERTEX
8
TRAV_149
10
100.000000
20
913.125393
30
17.871919
0
VERTEX
8
TRAV_149
10
100.000000
20
909.251617
30
16.289307
0
VERTEX
8
TRAV_149
10
100.000000
20
905.179823
30
15.324274
0
VERTEX
8
TRAV_149
10
100.000000
20
901.007815
30
15.000000
0
VERTEX
8
TRAV_149
10
100.000000
20
148.992185
30
15.000000
0
VERTEX
8
TRAV_149
10
100.000000
20
144.820177
30
15.324274
0
VERTEX
8
TRAV_149
10
100.000000
20
140.748383
30
16.289307
0
VERTEX
8
TRAV_149
10
100.000000
20
136.874607
30
17.871919
0
VERTEX
8
TRAV_149
10
100.000000
20
133.291899
30
20.034094
0
VERTEX
8
TRAV_149
10
100.000000
20
130.086316
30
22.723897
0
VERTEX
8
TRAV_149
10
100.000000
20
127.334858
30
25.876718
0
VERTEX
8
TRAV_149
10
100.000000
20
125.103616
30
29.416825
0
VERTEX
8
TRAV_149
10
100.000000
20
123.446184
30
33.259184
0
VERTEX
8
TRAV_149
10
100.000000
20
122.402375
30
37.311499
0
VERTEX
8
TRAV_149
10
100.000000
20
15.486152
30
643.663532
0
VERTEX
8
TRAV_149
10
100.000000
20
15.384325
30
644.275673
0
VERTEX
8
TRAV_149
10
100.000000
20
15.294387
30
644.889673
0
VERTEX
8
TRAV_149
10
100.000000
20
15.216373
30
645.505301
0
VERTEX
8
TRAV_149
10
100.000000
20
15.150311
30
646.122326
0
VERTEX
8
TRAV_149
10
100.000000
20
15.096226
30
646.740517
0
VERTEX
8
TRAV_149
10
100.000000
20
15.054139
30
647.359640
0
VERTEX
8
TRAV_149
10
100.000000
20
15.024066
30
647.979462
0
VERTEX
8
TRAV_149
10
100.000000
20
15.006017
30
648.599752
0
VERTEX
8
TRAV_149
10
100.000000
20
15.000000
30
649.220274
0
VERTEX
8
TRAV_149
10
100.000000
20
15.000000
30
750.000000
0
VERTEX
8
TRAV_149
10
100.000000
20
0.000000
30
750.000000
0
VERTEX
8
TRAV_149
10
100.000000
20
0.000000
30
648.500125
0
VERTEX
8
TRAV_149
10
100.000000
20
0.007524
30
647.724344
0
VERTEX
8
TRAV_149
10
100.000000
20
0.030092
30
646.948855
0
VERTEX
8
TRAV_149
10
100.000000
20
0.067696
30
646.173950
0
VERTEX
8
TRAV_149
10
100.000000
20
0.120322
30
645.399919
0
VERTEX
8
TRAV_149
10
100.000000
20
0.187950
30
644.627055
0
VERTEX
8
TRAV_149
10
100.000000
20
0.270555
30
643.855648
0
VERTEX
8
TRAV_149
10
100.000000
20
0.368105
30
643.085988
0
VERTEX
8
TRAV_149
10
100.000000
20
0.480564
30
642.318365
0
VERTEX
8
TRAV_149
10
100.000000
20
0.607889
30
641.553067
0
VERTEX
8
TRAV_149
10
100.000000
20
108.649534
30
28.921324
0
VERTEX
8
TRAV_149
10
100.000000
20
110.002734
30
23.668467
0
VERTEX
8
TRAV_149
10
100.000000
20
112.151332
30
18.687785
0
VERTEX
8
TRAV_149
10
100.000000
20
115.043719
30
14.098912
0
VERTEX
8
TRAV_149
10
100.000000
20
118.610422
30
10.012068
0
VERTEX
8
TRAV_149
10
100.000000
20
122.765772
30
6.525418
0
VERTEX
8
TRAV_149
10
100.000000
20
127.409959
30
3.722707
0
VERTEX
8
TRAV_149
10
100.000000
20
132.431434
30
1.671256
0
VERTEX
8
TRAV_149
10
100.000000
20
137.709583
30
0.420338
0
VERTEX
8
TRAV_149
10
100.000000
20
143.117631
30
0.000000
0
VERTEX
8
TRAV_149
10
100.000000
20
906.882369
30
-0.000000
0
VERTEX
8
TRAV_149
10
100.000000
20
912.290417
30
0.420338
0
VERTEX
8
TRAV_149
10
100.000000
20
917.568566
30
1.671256
0
VERTEX
8
TRAV_149
10
100.000000
20
922.590041
30
3.722707
0
VERTEX
8
TRAV_149
10
100.000000
20
927.234228
30
6.525418
0
VERTEX
8
TRAV_149
10
100.000000
20
931.389578
30
10.012068
0
VERTEX
8
TRAV_149
10
100.000000
20
934.956281
30
14.098912
0
VERTEX
8
TRAV_149
10
100.000000
20
937.848668
30
18.687785
0
VERTEX
8
TRAV_149
10
100.000000
20
939.997266
30
23.668467
0
SEQEND
0
POLYLINE
8
TRAV_149
62
0
66
1
70
9
0
VERTEX
8
TRAV_149
10
20.000000
20
927.597625
30
37.311499
0
VERTEX
8
TRAV_149
10
20.000000
20
1034.513848
30
643.663532
0
VERTEX
8
TRAV_149
10
20.000000
20
1034.615675
30
644.275673
0
VERTEX
8
TRAV_149
10
20.000000
20
1034.705613
30
644.889673
0
VERTEX
8
TRAV_149
10
20.000000
20
1034.783627
30
645.505301
0
VERTEX
8
TRAV_149
10
20.000000
20
1034.849689
30
646.122326
0
VERTEX
8
TRAV_149
10
20.000000
20
1034.903774
30
646.740517
0
VERTEX
8
TRAV_149
10
20.000000
20
1034.945861
30
647.359640
0
VERTEX
8
TRAV_149
10
20.000000
20
1034.975934
30
647.979462
0
VERTEX
8
TRAV_149
10
20.000000
20
1034.993983
30
648.599752
0
VERTEX
8
TRAV_149
10
20.000000
20
1035.000000
30
649.220274
0
VERTEX
8
TRAV_149
10
20.000000
20
1035.000000
30
750.000000
0
VERTEX
8
TRAV_149
10
20.000000
20
1050.000000
30
750.000000
0
VERTEX
8
TRAV_149
10
20.000000
20
1050.000000
30
648.500125
0
VERTEX
8
TRAV_149
10
20.000000
20
1049.992476
30
647.724344
0
VERTEX
8
TRAV_149
10
20.000000
20
1049.969908
30
646.948855
0
VERTEX
8
TRAV_149
10
20.000000
20
1049.932304
30
646.173950
0
VERTEX
8
TRAV_149
10
20.000000
20
1049.879678
30
645.399919
0
VERTEX
8
TRAV_149
10
20.000000
20
1049.812050
30
644.627055
0
VERTEX
8
TRAV_149
10
20.000000
20
1049.729445
30
643.855648
0
VERTEX
8
TRAV_149
10
20.000000
20
1049.631895
30
643.085988
0
VERTEX
8
TRAV_149
10
20.000000
20
1049.519436
30
642.318365
0
VERTEX
8
TRAV_149
10
20.000000
20
1049.392111
30
641.553067
0
VERTEX
8
TRAV_149
10
20.000000
20
941.350466
30
28.921324
0
VERTEX
8
TRAV_149
10
20.000000
20
939.997266
30
23.668467
0
VERTEX
8
TRAV_149
10
20.000000
20
937.848668
30
18.687785
0
VERTEX
8
TRAV_149
10
20.000000
20
934.956281
30
14.098912
0
VERTEX
8
TRAV_149
10
20.000000
20
931.389578
30
10.012068
0
VERTEX
8
TRAV_149
10
20.000000
20
927.234228
30
6.525418
0
VERTEX
8
TRAV_149
10
20.000000
20
922.590041
30
3.722707
0
VERTEX
8
TRAV_149
10
20.000000
20
917.568566
30
1.671256
0
VERTEX
8
TRAV_149
10
20.000000
20
912.290417
30
0.420338
0
VERTEX
8
TRAV_149
10
20.000000
20
906.882369
30
-0.000000
0
VERTEX
8
TRAV_149
10
20.000000
20
143.117631
30
0.000000
0
VERTEX
8
TRAV_149
10
20.000000
20
137.709583
30
0.420338
0
VERTEX
8
TRAV_149
10
20.000000
20
132.431434
30
1.671256
0
VERTEX
8
TRAV_149
10
20.000000
20
127.409959
30
3.722707
0
VERTEX
8
TRAV_149
10
20.000000
20
122.765772
30
6.525418
0
VERTEX
8
TRAV_149
10
20.000000
20
118.610422
30
10.012068
0
VERTEX
8
TRAV_149
10
20.000000
20
115.043719
30
14.098912
0
VERTEX
8
TRAV_149
10
20.000000
20
112.151332
30
18.687785
0
VERTEX
8
TRAV_149
10
20.000000
20
110.002734
30
23.668467
0
VERTEX
8
TRAV_149
10
20.000000
20
108.649534
30
28.921324
0
VERTEX
8
TRAV_149
10
20.000000
20
0.607889
30
641.553067
0
VERTEX
8
TRAV_149
10
20.000000
20
0.480564
30
642.318365
0
VERTEX
8
TRAV_149
10
20.000000
20
0.368105
30
643.085988
0
VERTEX
8
TRAV_149
10
20.000000
20
0.270555
30
643.855648
0
VERTEX
8
TRAV_149
10
20.000000
20
0.187950
30
644.627055
0
VERTEX
8
TRAV_149
10
20.000000
20
0.120322
30
645.399919
0
VERTEX
8
TRAV_149
10
20.000000
20
0.067696
30
646.173950
0
VERTEX
8
TRAV_149
10
20.000000
20
0.030092
30
646.948855
0
VERTEX
8
TRAV_149
10
20.000000
20
0.007524
30
647.724344
0
VERTEX
8
TRAV_149
10
20.000000
20
0.000000
30
648.500125
0
VERTEX
8
TRAV_149
10
20.000000
20
0.000000
30
750.000000
0
VERTEX
8
TRAV_149
10
20.000000
20
15.000000
30
750.000000
0
VERTEX
8
TRAV_149
10
20.000000
20
15.000000
30
649.220274
0
VERTEX
8
TRAV_149
10
20.000000
20
15.006017
30
648.599752
0
VERTEX
8
TRAV_149
10
20.000000
20
15.024066
30
647.979462
0
VERTEX
8
TRAV_149
10
20.000000
20
15.054139
30
647.359640
0
VERTEX
8
TRAV_149
10
20.000000
20
15.096226
30
646.740517
0
VERTEX
8
TRAV_149
10
20.000000
20
15.150311
30
646.122326
0
VERTEX
8
TRAV_149
10
20.000000
20
15.216373
30
645.505301
0
VERTEX
8
TRAV_149
10
20.000000
20
15.294387
30
644.889673
0
VERTEX
8
TRAV_149
10
20.000000
20
15.384325
30
644.275673
0
VERTEX
8
TRAV_149
10
20.000000
20
15.486152
30
643.663532
0
VERTEX
8
TRAV_149
10
20.000000
20
122.402375
30
37.311499
0
VERTEX
8
TRAV_149
10
20.000000
20
123.446184
30
33.259184
0
VERTEX
8
TRAV_149
10
20.000000
20
125.103616
30
29.416825
0
VERTEX
8
TRAV_149
10
20.000000
20
127.334858
30
25.876718
0
VERTEX
8
TRAV_149
10
20.000000
20
130.086316
30
22.723897
0
VERTEX
8
TRAV_149
10
20.000000
20
133.291899
30
20.034094
0
VERTEX
8
TRAV_149
10
20.000000
20
136.874607
30
17.871919
0
VERTEX
8
TRAV_149
10
20.000000
20
140.748383
30
16.289307
0
VERTEX
8
TRAV_149
10
20.000000
20
144.820177
30
15.324274
0
VERTEX
8
TRAV_149
10
20.000000
20
148.992185
30
15.000000
0
VERTEX
8
TRAV_149
10
20.000000
20
901.007815
30
15.000000
0
VERTEX
8
TRAV_149
10
20.000000
20
905.179823
30
15.324274
0
VERTEX
8
TRAV_149
10
20.000000
20
909.251617
30
16.289307
0
VERTEX
8
TRAV_149
10
20.000000
20
913.125393
30
17.871919
0
VERTEX
8
TRAV_149
10
20.000000
20
916.708101
30
20.034094
0
VERTEX
8
TRAV_149
10
20.000000
20
919.913684
30
22.723897
0
VERTEX
8
TRAV_149
10
20.000000
20
922.665142
30
25.876718
0
VERTEX
8
TRAV_149
10
20.000000
20
924.896384
30
29.416825
0
VERTEX
8
TRAV_149
10
20.000000
20
926.553816
30
33.259184
0
SEQEND
0
POLYLINE
8
TRAV_149
62
0
66
1
70
9
0
VERTEX
8
TRAV_149
10
100.000000
20
15.384325
30
644.275673
0
VERTEX
8
TRAV_149
10
100.000000
20
15.486152
30
643.663532
0
VERTEX
8
TRAV_149
10
20.000000
20
15.486152
30
643.663532
0
VERTEX
8
TRAV_149
10
20.000000
20
15.384325
30
644.275673
0
SEQEND
0
POLYLINE
8
TRAV_149
62
0
66
1
70
9
0
VERTEX
8
TRAV_149
10
100.000000
20
15.000000
30
649.220274
0
VERTEX
8
TRAV_149
10
100.000000
20
15.006017
30
648.599752
0
VERTEX
8
TRAV_149
10
20.000000
20
15.006017
30
648.599752
0
VERTEX
8
TRAV_149
10
20.000000
20
15.000000
30
649.220274
0
SEQEND
0
POLYLINE
8
TRAV_149
62
0
66
1
70
9
0
VERTEX
8
TRAV_149
10
20.000000
20
0.607889
30
641.553067
0
VERTEX
8
TRAV_149
10
20.000000
20
108.649534
30
28.921324
0
VERTEX
8
TRAV_149
10
100.000000
20
108.649534
30
28.921324
0
VERTEX
8
TRAV_149
10
100.000000
20
0.607889
30
641.553067
0
SEQEND
0
POLYLINE
8
TRAV_149
62
0
66
1
70
9
0
VERTEX
8
TRAV_149
10
100.000000
20
0.000000
30
648.500125
0
VERTEX
8
TRAV_149
10
100.000000
20
0.000000
30
750.000000
0
VERTEX
8
TRAV_149
10
20.000000
20
0.000000
30
750.000000
0
VERTEX
8
TRAV_149
10
20.000000
20
0.000000
30
648.500125
0
SEQEND
0
POLYLINE
8
TRAV_149
62
0
66
1
70
9
0
VERTEX
8
TRAV_149
10
100.000000
20
0.007524
30
647.724344
0
VERTEX
8
TRAV_149
10
100.000000
20
0.000000
30
648.500125
0
VERTEX
8
TRAV_149
10
20.000000
20
0.000000
30
648.500125
0
VERTEX
8
TRAV_149
10
20.000000
20
0.007524
30
647.724344
0
SEQEND
0
POLYLINE
8
TRAV_149
62
0
66
1
70
9
0
VERTEX
8
TRAV_149
10
100.000000
20
0.030092
30
646.948855
0
VERTEX
8
TRAV_149
10
100.000000
20
0.007524
30
647.724344
0
VERTEX
8
TRAV_149
10
20.000000
20
0.007524
30
647.724344
0
VERTEX
8
TRAV_149
10
20.000000
20
0.030092
30
646.948855
0
SEQEND
0
POLYLINE
8
TRAV_149
62
0
66
1
70
9
0
VERTEX
8
TRAV_149
10
100.000000
20
0.067696
30
646.173950
0
VERTEX
8
TRAV_149
10
100.000000
20
0.030092
30
646.948855
0
VERTEX
8
TRAV_149
10
20.000000
20
0.030092
30
646.948855
0
VERTEX
8
TRAV_149
10
20.000000
20
0.067696
30
646.173950
0
SEQEND
0
POLYLINE
8
TRAV_149
62
0
66
1
70
9
0
VERTEX
8
TRAV_149
10
100.000000
20
0.120322
30
645.399919
0
VERTEX
8
TRAV_149
10
100.000000
20
0.067696
30
646.173950
0
VERTEX
8
TRAV_149
10
20.000000
20
0.067696
30
646.173950
0
VERTEX
8
TRAV_149
10
20.000000
20
0.120322
30
645.399919
0
SEQEND
0
POLYLINE
8
TRAV_149
62
0
66
1
70
9
0
VERTEX
8
TRAV_149
10
100.000000
20
0.187950
30
644.627055
0
VERTEX
8
TRAV_149
10
100.000000
20
0.120322
30
645.399919
0
VERTEX
8
TRAV_149
10
20.000000
20
0.120322
30
645.399919
0
VERTEX
8
TRAV_149
10
20.000000
20
0.187950
30
644.627055
0
SEQEND
0
POLYLINE
8
TRAV_149
62
0
66
1
70
9
0
VERTEX
8
TRAV_149
10
100.000000
20
0.270555
30
643.855648
0
VERTEX
8
TRAV_149
10
100.000000
20
0.187950
30
644.627055
0
VERTEX
8
TRAV_149
10
20.000000
20
0.187950
30
644.627055
0
VERTEX
8
TRAV_149
10
20.000000
20
0.270555
30
643.855648
0
SEQEND
0
POLYLINE
8
TRAV_149
62
0
66
1
70
9
0
VERTEX
8
TRAV_149
10
100.000000
20
0.368105
30
643.085988
0
VERTEX
8
TRAV_149
10
100.000000
20
0.270555
30
643.855648
0
VERTEX
8
TRAV_149
10
20.000000
20
0.270555
30
643.855648
0
VERTEX
8
TRAV_149
10
20.000000
20
0.368105
30
643.085988
0
SEQEND
0
POLYLINE
8
TRAV_149
62
0
66
1
70
9
0
VERTEX
8
TRAV_149
10
100.000000
20
0.480564
30
642.318365
0
VERTEX
8
TRAV_149
10
100.000000
20
0.368105
30
643.085988
0
VERTEX
8
TRAV_149
10
20.000000
20
0.368105
30
643.085988
0
VERTEX
8
TRAV_149
10
20.000000
20
0.480564
30
642.318365
0
SEQEND
0
POLYLINE
8
TRAV_149
62
0
66
1
70
9
0
VERTEX
8
TRAV_149
10
100.000000
20
0.607889
30
641.553067
0
VERTEX
8
TRAV_149
10
100.000000
20
0.480564
30
642.318365
0
VERTEX
8
TRAV_149
10
20.000000
20
0.480564
30
642.318365
0
VERTEX
8
TRAV_149
10
20.000000
20
0.607889
30
641.553067
0
SEQEND
0
POLYLINE
8
TRAV_149
62
0
66
1
70
9
0
VERTEX
8
TRAV_149
10
100.000000
20
927.597625
30
37.311499
0
VERTEX
8
TRAV_149
10
100.000000
20
1034.513848
30
643.663532
0
VERTEX
8
TRAV_149
10
20.000000
20
1034.513848
30
643.663532
0
VERTEX
8
TRAV_149
10
20.000000
20
927.597625
30
37.311499
0
SEQEND
0
POLYLINE
8
TRAV_149
62
0
66
1
70
9
0
VERTEX
8
TRAV_149
10
100.000000
20
1035.000000
30
649.220274
0
VERTEX
8
TRAV_149
10
100.000000
20
1035.000000
30
750.000000
0
VERTEX
8
TRAV_149
10
20.000000
20
1035.000000
30
750.000000
0
VERTEX
8
TRAV_149
10
20.000000
20
1035.000000
30
649.220274
0
SEQEND
0
POLYLINE
8
TRAV_149
62
0
66
1
70
9
0
VERTEX
8
TRAV_149
10
20.000000
20
1034.615675
30
644.275673
0
VERTEX
8
TRAV_149
10
20.000000
20
1034.513848
30
643.663532
0
VERTEX
8
TRAV_149
10
100.000000
20
1034.513848
30
643.663532
0
VERTEX
8
TRAV_149
10
100.000000
20
1034.615675
30
644.275673
0
SEQEND
0
POLYLINE
8
TRAV_149
62
0
66
1
70
9
0
VERTEX
8
TRAV_149
10
20.000000
20
1035.000000
30
649.220274
0
VERTEX
8
TRAV_149
10
20.000000
20
1034.993983
30
648.599752
0
VERTEX
8
TRAV_149
10
100.000000
20
1034.993983
30
648.599752
0
VERTEX
8
TRAV_149
10
100.000000
20
1035.000000
30
649.220274
0
SEQEND
0
POLYLINE
8
TRAV_149
62
0
66
1
70
9
0
VERTEX
8
TRAV_149
10
20.000000
20
941.350466
30
28.921324
0
VERTEX
8
TRAV_149
10
20.000000
20
1049.392111
30
641.553067
0
VERTEX
8
TRAV_149
10
100.000000
20
1049.392111
30
641.553067
0
VERTEX
8
TRAV_149
10
100.000000
20
941.350466
30
28.921324
0
SEQEND
0
POLYLINE
8
TRAV_149
62
0
66
1
70
9
0
VERTEX
8
TRAV_149
10
20.000000
20
1050.000000
30
648.500125
0
VERTEX
8
TRAV_149
10
20.000000
20
1050.000000
30
750.000000
0
VERTEX
8
TRAV_149
10
100.000000
20
1050.000000
30
750.000000
0
VERTEX
8
TRAV_149
10
100.000000
20
1050.000000
30
648.500125
0
SEQEND
0
POLYLINE
8
TRAV_149
62
0
66
1
70
9
0
VERTEX
8
TRAV_149
10
20.000000
20
1049.992476
30
647.724344
0
VERTEX
8
TRAV_149
10
20.000000
20
1050.000000
30
648.500125
0
VERTEX
8
TRAV_149
10
100.000000
20
1050.000000
30
648.500125
0
VERTEX
8
TRAV_149
10
100.000000
20
1049.992476
30
647.724344
0
SEQEND
0
POLYLINE
8
TRAV_149
62
0
66
1
70
9
0
VERTEX
8
TRAV_149
10
20.000000
20
1049.969908
30
646.948855
0
VERTEX
8
TRAV_149
10
20.000000
20
1049.992476
30
647.724344
0
VERTEX
8
TRAV_149
10
100.000000
20
1049.992476
30
647.724344
0
VERTEX
8
TRAV_149
10
100.000000
20
1049.969908
30
646.948855
0
SEQEND
0
POLYLINE
8
TRAV_149
62
0
66
1
70
9
0
VERTEX
8
TRAV_149
10
20.000000
20
1049.932304
30
646.173950
0
VERTEX
8
TRAV_149
10
20.000000
20
1049.969908
30
646.948855
0
VERTEX
8
TRAV_149
10
100.000000
20
1049.969908
30
646.948855
0
VERTEX
8
TRAV_149
10
100.000000
20
1049.932304
30
646.173950
0
SEQEND
0
POLYLINE
8
TRAV_149
62
0
66
1
70
9
0
VERTEX
8
TRAV_149
10
20.000000
20
1049.879678
30
645.399919
0
VERTEX
8
TRAV_149
10
20.000000
20
1049.932304
30
646.173950
0
VERTEX
8
TRAV_149
10
100.000000
20
1049.932304
30
646.173950
0
VERTEX
8
TRAV_149
10
100.000000
20
1049.879678
30
645.399919
0
SEQEND
0
POLYLINE
8
TRAV_149
62
0
66
1
70
9
0
VERTEX
8
TRAV_149
10
20.000000
20
1049.812050
30
644.627055
0
VERTEX
8
TRAV_149
10
20.000000
20
1049.879678
30
645.399919
0
VERTEX
8
TRAV_149
10
100.000000
20
1049.879678
30
645.399919
0
VERTEX
8
TRAV_149
10
100.000000
20
1049.812050
30
644.627055
0
SEQEND
0
POLYLINE
8
TRAV_149
62
0
66
1
70
9
0
VERTEX
8
TRAV_149
10
20.000000
20
1049.729445
30
643.855648
0
VERTEX
8
TRAV_149
10
20.000000
20
1049.812050
30
644.627055
0
VERTEX
8
TRAV_149
10
100.000000
20
1049.812050
30
644.627055
0
VERTEX
8
TRAV_149
10
100.000000
20
1049.729445
30
643.855648
0
SEQEND
0
POLYLINE
8
TRAV_149
62
0
66
1
70
9
0
VERTEX
8
TRAV_149
10
20.000000
20
1049.631895
30
643.085988
0
VERTEX
8
TRAV_149
10
20.000000
20
1049.729445
30
643.855648
0
VERTEX
8
TRAV_149
10
100.000000
20
1049.729445
30
643.855648
0
VERTEX
8
TRAV_149
10
100.000000
20
1049.631895
30
643.085988
0
SEQEND
0
POLYLINE
8
TRAV_149
62
0
66
1
70
9
0
VERTEX
8
TRAV_149
10
20.000000
20
1049.519436
30
642.318365
0
VERTEX
8
TRAV_149
10
20.000000
20
1049.631895
30
643.085988
0
VERTEX
8
TRAV_149
10
100.000000
20
1049.631895
30
643.085988
0
VERTEX
8
TRAV_149
10
100.000000
20
1049.519436
30
642.318365
0
SEQEND
0
POLYLINE
8
TRAV_149
62
0
66
1
70
9
0
VERTEX
8
TRAV_149
10
20.000000
20
1049.392111
30
641.553067
0
VERTEX
8
TRAV_149
10
20.000000
20
1049.519436
30
642.318365
0
VERTEX
8
TRAV_149
10
100.000000
20
1049.519436
30
642.318365
0
VERTEX
8
TRAV_149
10
100.000000
20
1049.392111
30
641.553067
0
SEQEND
0
POLYLINE
8
TRAV_149
62
0
66
1
70
9
0
VERTEX
8
TRAV_149
10
100.000000
20
148.992185
30
15.000000
0
VERTEX
8
TRAV_149
10
100.000000
20
901.007815
30
15.000000
0
VERTEX
8
TRAV_149
10
20.000000
20
901.007815
30
15.000000
0
VERTEX
8
TRAV_149
10
20.000000
20
148.992185
30
15.000000
0
SEQEND
0
POLYLINE
8
TRAV_149
62
0
66
1
70
9
0
VERTEX
8
TRAV_149
10
100.000000
20
144.820177
30
15.324274
0
VERTEX
8
TRAV_149
10
100.000000
20
148.992185
30
15.000000
0
VERTEX
8
TRAV_149
10
20.000000
20
148.992185
30
15.000000
0
VERTEX
8
TRAV_149
10
20.000000
20
144.820177
30
15.324274
0
SEQEND
0
POLYLINE
8
TRAV_149
62
0
66
1
70
9
0
VERTEX
8
TRAV_149
10
100.000000
20
122.402375
30
37.311499
0
VERTEX
8
TRAV_149
10
100.000000
20
123.446184
30
33.259184
0
VERTEX
8
TRAV_149
10
20.000000
20
123.446184
30
33.259184
0
VERTEX
8
TRAV_149
10
20.000000
20
122.402375
30
37.311499
0
SEQEND
0
POLYLINE
8
TRAV_149
62
0
66
1
70
9
0
VERTEX
8
TRAV_149
10
20.000000
20
905.179823
30
15.324274
0
VERTEX
8
TRAV_149
10
20.000000
20
901.007815
30
15.000000
0
VERTEX
8
TRAV_149
10
100.000000
20
901.007815
30
15.000000
0
VERTEX
8
TRAV_149
10
100.000000
20
905.179823
30
15.324274
0
SEQEND
0
POLYLINE
8
TRAV_149
62
0
66
1
70
9
0
VERTEX
8
TRAV_149
10
20.000000
20
927.597625
30
37.311499
0
VERTEX
8
TRAV_149
10
20.000000
20
926.553816
30
33.259184
0
VERTEX
8
TRAV_149
10
100.000000
20
926.553816
30
33.259184
0
VERTEX
8
TRAV_149
10
100.000000
20
927.597625
30
37.311499
0
SEQEND
0
POLYLINE
8
TRAV_149
62
0
66
1
70
9
0
VERTEX
8
TRAV_149
10
20.000000
20
143.117631
30
0.000000
0
VERTEX
8
TRAV_149
10
20.000000
20
906.882369
30
-0.000000
0
VERTEX
8
TRAV_149
10
100.000000
20
906.882369
30
-0.000000
0
VERTEX
8
TRAV_149
10
100.000000
20
143.117631
30
0.000000
0
SEQEND
0
POLYLINE
8
TRAV_149
62
0
66
1
70
9
0
VERTEX
8
TRAV_149
10
20.000000
20
939.997266
30
23.668467
0
VERTEX
8
TRAV_149
10
20.000000
20
941.350466
30
28.921324
0
VERTEX
8
TRAV_149
10
100.000000
20
941.350466
30
28.921324
0
VERTEX
8
TRAV_149
10
100.000000
20
939.997266
30
23.668467
0
SEQEND
0
POLYLINE
8
TRAV_149
62
0
66
1
70
9
0
VERTEX
8
TRAV_149
10
20.000000
20
937.848668
30
18.687785
0
VERTEX
8
TRAV_149
10
20.000000
20
939.997266
30
23.668467
0
VERTEX
8
TRAV_149
10
100.000000
20
939.997266
30
23.668467
0
VERTEX
8
TRAV_149
10
100.000000
20
937.848668
30
18.687785
0
SEQEND
0
POLYLINE
8
TRAV_149
62
0
66
1
70
9
0
VERTEX
8
TRAV_149
10
20.000000
20
934.956281
30
14.098912
0
VERTEX
8
TRAV_149
10
20.000000
20
937.848668
30
18.687785
0
VERTEX
8
TRAV_149
10
100.000000
20
937.848668
30
18.687785
0
VERTEX
8
TRAV_149
10
100.000000
20
934.956281
30
14.098912
0
SEQEND
0
POLYLINE
8
TRAV_149
62
0
66
1
70
9
0
VERTEX
8
TRAV_149
10
20.000000
20
931.389578
30
10.012068
0
VERTEX
8
TRAV_149
10
20.000000
20
934.956281
30
14.098912
0
VERTEX
8
TRAV_149
10
100.000000
20
934.956281
30
14.098912
0
VERTEX
8
TRAV_149
10
100.000000
20
931.389578
30
10.012068
0
SEQEND
0
POLYLINE
8
TRAV_149
62
0
66
1
70
9
0
VERTEX
8
TRAV_149
10
20.000000
20
927.234228
30
6.525418
0
VERTEX
8
TRAV_149
10
20.000000
20
931.389578
30
10.012068
0
VERTEX
8
TRAV_149
10
100.000000
20
931.389578
30
10.012068
0
VERTEX
8
TRAV_149
10
100.000000
20
927.234228
30
6.525418
0
SEQEND
0
POLYLINE
8
TRAV_149
62
0
66
1
70
9
0
VERTEX
8
TRAV_149
10
20.000000
20
922.590041
30
3.722707
0
VERTEX
8
TRAV_149
10
20.000000
20
927.234228
30
6.525418
0
VERTEX
8
TRAV_149
10
100.000000
20
927.234228
30
6.525418
0
VERTEX
8
TRAV_149
10
100.000000
20
922.590041
30
3.722707
0
SEQEND
0
POLYLINE
8
TRAV_149
62
0
66
1
70
9
0
VERTEX
8
TRAV_149
10
20.000000
20
917.568566
30
1.671256
0
VERTEX
8
TRAV_149
10
20.000000
20
922.590041
30
3.722707
0
VERTEX
8
TRAV_149
10
100.000000
20
922.590041
30
3.722707
0
VERTEX
8
TRAV_149
10
100.000000
20
917.568566
30
1.671256
0
SEQEND
0
POLYLINE
8
TRAV_149
62
0
66
1
70
9
0
VERTEX
8
TRAV_149
10
20.000000
20
912.290417
30
0.420338
0
VERTEX
8
TRAV_149
10
20.000000
20
917.568566
30
1.671256
0
VERTEX
8
TRAV_149
10
100.000000
20
917.568566
30
1.671256
0
VERTEX
8
TRAV_149
10
100.000000
20
912.290417
30
0.420338
0
SEQEND
0
POLYLINE
8
TRAV_149
62
0
66
1
70
9
0
VERTEX
8
TRAV_149
10
20.000000
20
906.882369
30
-0.000000
0
VERTEX
8
TRAV_149
10
20.000000
20
912.290417
30
0.420338
0
VERTEX
8
TRAV_149
10
100.000000
20
912.290417
30
0.420338
0
VERTEX
8
TRAV_149
10
100.000000
20
906.882369
30
-0.000000
0
SEQEND
0
POLYLINE
8
TRAV_149
62
0
66
1
70
9
0
VERTEX
8
TRAV_149
10
20.000000
20
137.709583
30
0.420338
0
VERTEX
8
TRAV_149
10
20.000000
20
143.117631
30
0.000000
0
VERTEX
8
TRAV_149
10
100.000000
20
143.117631
30
0.000000
0
VERTEX
8
TRAV_149
10
100.000000
20
137.709583
30
0.420338
0
SEQEND
0
POLYLINE
8
TRAV_149
62
0
66
1
70
9
0
VERTEX
8
TRAV_149
10
20.000000
20
132.431434
30
1.671256
0
VERTEX
8
TRAV_149
10
20.000000
20
137.709583
30
0.420338
0
VERTEX
8
TRAV_149
10
100.000000
20
137.709583
30
0.420338
0
VERTEX
8
TRAV_149
10
100.000000
20
132.431434
30
1.671256
0
SEQEND
0
POLYLINE
8
TRAV_149
62
0
66
1
70
9
0
VERTEX
8
TRAV_149
10
20.000000
20
127.409959
30
3.722707
0
VERTEX
8
TRAV_149
10
20.000000
20
132.431434
30
1.671256
0
VERTEX
8
TRAV_149
10
100.000000
20
132.431434
30
1.671256
0
VERTEX
8
TRAV_149
10
100.000000
20
127.409959
30
3.722707
0
SEQEND
0
POLYLINE
8
TRAV_149
62
0
66
1
70
9
0
VERTEX
8
TRAV_149
10
20.000000
20
122.765772
30
6.525418
0
VERTEX
8
TRAV_149
10
20.000000
20
127.409959
30
3.722707
0
VERTEX
8
TRAV_149
10
100.000000
20
127.409959
30
3.722707
0
VERTEX
8
TRAV_149
10
100.000000
20
122.765772
30
6.525418
0
SEQEND
0
POLYLINE
8
TRAV_149
62
0
66
1
70
9
0
VERTEX
8
TRAV_149
10
20.000000
20
118.610422
30
10.012068
0
VERTEX
8
TRAV_149
10
20.000000
20
122.765772
30
6.525418
0
VERTEX
8
TRAV_149
10
100.000000
20
122.765772
30
6.525418
0
VERTEX
8
TRAV_149
10
100.000000
20
118.610422
30
10.012068
0
SEQEND
0
POLYLINE
8
TRAV_149
62
0
66
1
70
9
0
VERTEX
8
TRAV_149
10
20.000000
20
115.043719
30
14.098912
0
VERTEX
8
TRAV_149
10
20.000000
20
118.610422
30
10.012068
0
VERTEX
8
TRAV_149
10
100.000000
20
118.610422
30
10.012068
0
VERTEX
8
TRAV_149
10
100.000000
20
115.043719
30
14.098912
0
SEQEND
0
POLYLINE
8
TRAV_149
62
0
66
1
70
9
0
VERTEX
8
TRAV_149
10
20.000000
20
112.151332
30
18.687785
0
VERTEX
8
TRAV_149
10
20.000000
20
115.043719
30
14.098912
0
VERTEX
8
TRAV_149
10
100.000000
20
115.043719
30
14.098912
0
VERTEX
8
TRAV_149
10
100.000000
20
112.151332
30
18.687785
0
SEQEND
0
POLYLINE
8
TRAV_149
62
0
66
1
70
9
0
VERTEX
8
TRAV_149
10
20.000000
20
110.002734
30
23.668467
0
VERTEX
8
TRAV_149
10
20.000000
20
112.151332
30
18.687785
0
VERTEX
8
TRAV_149
10
100.000000
20
112.151332
30
18.687785
0
VERTEX
8
TRAV_149
10
100.000000
20
110.002734
30
23.668467
0
SEQEND
0
POLYLINE
8
TRAV_149
62
0
66
1
70
9
0
VERTEX
8
TRAV_149
10
20.000000
20
108.649534
30
28.921324
0
VERTEX
8
TRAV_149
10
20.000000
20
110.002734
30
23.668467
0
VERTEX
8
TRAV_149
10
100.000000
20
110.002734
30
23.668467
0
VERTEX
8
TRAV_149
10
100.000000
20
108.649534
30
28.921324
0
SEQEND
0
POLYLINE
8
TRAV_149
62
0
66
1
70
9
0
VERTEX
8
TRAV_149
10
20.000000
20
1035.000000
30
750.000000
0
VERTEX
8
TRAV_149
10
100.000000
20
1035.000000
30
750.000000
0
VERTEX
8
TRAV_149
10
100.000000
20
1050.000000
30
750.000000
0
VERTEX
8
TRAV_149
10
20.000000
20
1050.000000
30
750.000000
0
SEQEND
0
POLYLINE
8
TRAV_149
62
0
66
1
70
9
0
VERTEX
8
TRAV_149
10
20.000000
20
0.000000
30
750.000000
0
VERTEX
8
TRAV_149
10
100.000000
20
0.000000
30
750.000000
0
VERTEX
8
TRAV_149
10
100.000000
20
15.000000
30
750.000000
0
VERTEX
8
TRAV_149
10
20.000000
20
15.000000
30
750.000000
0
SEQEND
0
POLYLINE
8
TRAV_149
62
0
66
1
70
9
0
VERTEX
8
TRAV_149
10
20.000000
20
909.251617
30
16.289307
0
VERTEX
8
TRAV_149
10
20.000000
20
905.179823
30
15.324274
0
VERTEX
8
TRAV_149
10
100.000000
20
905.179823
30
15.324274
0
SEQEND
0
POLYLINE
8
TRAV_149
62
0
66
1
70
9
0
VERTEX
8
TRAV_149
10
100.000000
20
909.251617
30
16.289307
0
VERTEX
8
TRAV_149
10
20.000000
20
909.251617
30
16.289307
0
VERTEX
8
TRAV_149
10
100.000000
20
905.179823
30
15.324274
0
SEQEND
0
POLYLINE
8
TRAV_149
62
0
66
1
70
9
0
VERTEX
8
TRAV_149
10
20.000000
20
913.125393
30
17.871919
0
VERTEX
8
TRAV_149
10
20.000000
20
909.251617
30
16.289307
0
VERTEX
8
TRAV_149
10
100.000000
20
909.251617
30
16.289307
0
SEQEND
0
POLYLINE
8
TRAV_149
62
0
66
1
70
9
0
VERTEX
8
TRAV_149
10
100.000000
20
913.125393
30
17.871919
0
VERTEX
8
TRAV_149
10
20.000000
20
913.125393
30
17.871919
0
VERTEX
8
TRAV_149
10
100.000000
20
909.251617
30
16.289307
0
SEQEND
0
POLYLINE
8
TRAV_149
62
0
66
1
70
9
0
VERTEX
8
TRAV_149
10
20.000000
20
916.708101
30
20.034094
0
VERTEX
8
TRAV_149
10
20.000000
20
913.125393
30
17.871919
0
VERTEX
8
TRAV_149
10
100.000000
20
913.125393
30
17.871919
0
SEQEND
0
POLYLINE
8
TRAV_149
62
0
66
1
70
9
0
VERTEX
8
TRAV_149
10
100.000000
20
916.708101
30
20.034094
0
VERTEX
8
TRAV_149
10
20.000000
20
916.708101
30
20.034094
0
VERTEX
8
TRAV_149
10
100.000000
20
913.125393
30
17.871919
0
SEQEND
0
POLYLINE
8
TRAV_149
62
0
66
1
70
9
0
VERTEX
8
TRAV_149
10
20.000000
20
919.913684
30
22.723897
0
VERTEX
8
TRAV_149
10
20.000000
20
916.708101
30
20.034094
0
VERTEX
8
TRAV_149
10
100.000000
20
916.708101
30
20.034094
0
SEQEND
0
POLYLINE
8
TRAV_149
62
0
66
1
70
9
0
VERTEX
8
TRAV_149
10
100.000000
20
919.913684
30
22.723897
0
VERTEX
8
TRAV_149
10
20.000000
20
919.913684
30
22.723897
0
VERTEX
8
TRAV_149
10
100.000000
20
916.708101
30
20.034094
0
SEQEND
0
POLYLINE
8
TRAV_149
62
0
66
1
70
9
0
VERTEX
8
TRAV_149
10
20.000000
20
922.665142
30
25.876718
0
VERTEX
8
TRAV_149
10
20.000000
20
919.913684
30
22.723897
0
VERTEX
8
TRAV_149
10
100.000000
20
919.913684
30
22.723897
0
SEQEND
0
POLYLINE
8
TRAV_149
62
0
66
1
70
9
0
VERTEX
8
TRAV_149
10
100.000000
20
922.665142
30
25.876718
0
VERTEX
8
TRAV_149
10
20.000000
20
922.665142
30
25.876718
0
VERTEX
8
TRAV_149
10
100.000000
20
919.913684
30
22.723897
0
SEQEND
0
POLYLINE
8
TRAV_149
62
0
66
1
70
9
0
VERTEX
8
TRAV_149
10
20.000000
20
924.896384
30
29.416825
0
VERTEX
8
TRAV_149
10
20.000000
20
922.665142
30
25.876718
0
VERTEX
8
TRAV_149
10
100.000000
20
922.665142
30
25.876718
0
SEQEND
0
POLYLINE
8
TRAV_149
62
0
66
1
70
9
0
VERTEX
8
TRAV_149
10
100.000000
20
924.896384
30
29.416825
0
VERTEX
8
TRAV_149
10
20.000000
20
924.896384
30
29.416825
0
VERTEX
8
TRAV_149
10
100.000000
20
922.665142
30
25.876718
0
SEQEND
0
POLYLINE
8
TRAV_149
62
0
66
1
70
9
0
VERTEX
8
TRAV_149
10
20.000000
20
926.553816
30
33.259184
0
VERTEX
8
TRAV_149
10
20.000000
20
924.896384
30
29.416825
0
VERTEX
8
TRAV_149
10
100.000000
20
924.896384
30
29.416825
0
SEQEND
0
POLYLINE
8
TRAV_149
62
0
66
1
70
9
0
VERTEX
8
TRAV_149
10
100.000000
20
926.553816
30
33.259184
0
VERTEX
8
TRAV_149
10
20.000000
20
926.553816
30
33.259184
0
VERTEX
8
TRAV_149
10
100.000000
20
924.896384
30
29.416825
0
SEQEND
0
POLYLINE
8
TRAV_149
62
0
66
1
70
9
0
VERTEX
8
TRAV_149
10
100.000000
20
140.748383
30
16.289307
0
VERTEX
8
TRAV_149
10
100.000000
20
144.820177
30
15.324274
0
VERTEX
8
TRAV_149
10
20.000000
20
144.820177
30
15.324274
0
SEQEND
0
POLYLINE
8
TRAV_149
62
0
66
1
70
9
0
VERTEX
8
TRAV_149
10
20.000000
20
140.748383
30
16.289307
0
VERTEX
8
TRAV_149
10
100.000000
20
140.748383
30
16.289307
0
VERTEX
8
TRAV_149
10
20.000000
20
144.820177
30
15.324274
0
SEQEND
0
POLYLINE
8
TRAV_149
62
0
66
1
70
9
0
VERTEX
8
TRAV_149
10
100.000000
20
136.874607
30
17.871919
0
VERTEX
8
TRAV_149
10
100.000000
20
140.748383
30
16.289307
0
VERTEX
8
TRAV_149
10
20.000000
20
140.748383
30
16.289307
0
SEQEND
0
POLYLINE
8
TRAV_149
62
0
66
1
70
9
0
VERTEX
8
TRAV_149
10
20.000000
20
136.874607
30
17.871919
0
VERTEX
8
TRAV_149
10
100.000000
20
136.874607
30
17.871919
0
VERTEX
8
TRAV_149
10
20.000000
20
140.748383
30
16.289307
0
SEQEND
0
POLYLINE
8
TRAV_149
62
0
66
1
70
9
0
VERTEX
8
TRAV_149
10
100.000000
20
133.291899
30
20.034094
0
VERTEX
8
TRAV_149
10
100.000000
20
136.874607
30
17.871919
0
VERTEX
8
TRAV_149
10
20.000000
20
136.874607
30
17.871919
0
SEQEND
0
POLYLINE
8
TRAV_149
62
0
66
1
70
9
0
VERTEX
8
TRAV_149
10
20.000000
20
133.291899
30
20.034094
0
VERTEX
8
TRAV_149
10
100.000000
20
133.291899
30
20.034094
0
VERTEX
8
TRAV_149
10
20.000000
20
136.874607
30
17.871919
0
SEQEND
0
POLYLINE
8
TRAV_149
62
0
66
1
70
9
0
VERTEX
8
TRAV_149
10
100.000000
20
130.086316
30
22.723897
0
VERTEX
8
TRAV_149
10
100.000000
20
133.291899
30
20.034094
0
VERTEX
8
TRAV_149
10
20.000000
20
133.291899
30
20.034094
0
SEQEND
0
POLYLINE
8
TRAV_149
62
0
66
1
70
9
0
VERTEX
8
TRAV_149
10
20.000000
20
130.086316
30
22.723897
0
VERTEX
8
TRAV_149
10
100.000000
20
130.086316
30
22.723897
0
VERTEX
8
TRAV_149
10
20.000000
20
133.291899
30
20.034094
0
SEQEND
0
POLYLINE
8
TRAV_149
62
0
66
1
70
9
0
VERTEX
8
TRAV_149
10
100.000000
20
127.334858
30
25.876718
0
VERTEX
8
TRAV_149
10
100.000000
20
130.086316
30
22.723897
0
VERTEX
8
TRAV_149
10
20.000000
20
130.086316
30
22.723897
0
SEQEND
0
POLYLINE
8
TRAV_149
62
0
66
1
70
9
0
VERTEX
8
TRAV_149
10
20.000000
20
127.334858
30
25.876718
0
VERTEX
8
TRAV_149
10
100.000000
20
127.334858
30
25.876718
0
VERTEX
8
TRAV_149
10
20.000000
20
130.086316
30
22.723897
0
SEQEND
0
POLYLINE
8
TRAV_149
62
0
66
1
70
9
0
VERTEX
8
TRAV_149
10
100.000000
20
125.103616
30
29.416825
0
VERTEX
8
TRAV_149
10
100.000000
20
127.334858
30
25.876718
0
VERTEX
8
TRAV_149
10
20.000000
20
127.334858
30
25.876718
0
SEQEND
0
POLYLINE
8
TRAV_149
62
0
66
1
70
9
0
VERTEX
8
TRAV_149
10
20.000000
20
125.103616
30
29.416825
0
VERTEX
8
TRAV_149
10
100.000000
20
125.103616
30
29.416825
0
VERTEX
8
TRAV_149
10
20.000000
20
127.334858
30
25.876718
0
SEQEND
0
POLYLINE
8
TRAV_149
62
0
66
1
70
9
0
VERTEX
8
TRAV_149
10
100.000000
20
123.446184
30
33.259184
0
VERTEX
8
TRAV_149
10
100.000000
20
125.103616
30
29.416825
0
VERTEX
8
TRAV_149
10
20.000000
20
125.103616
30
29.416825
0
SEQEND
0
POLYLINE
8
TRAV_149
62
0
66
1
70
9
0
VERTEX
8
TRAV_149
10
20.000000
20
123.446184
30
33.259184
0
VERTEX
8
TRAV_149
10
100.000000
20
123.446184
30
33.259184
0
VERTEX
8
TRAV_149
10
20.000000
20
125.103616
30
29.416825
0
SEQEND
0
POLYLINE
8
TRAV_149
62
0
66
1
70
9
0
VERTEX
8
TRAV_149
10
20.000000
20
1034.705613
30
644.889673
0
VERTEX
8
TRAV_149
10
20.000000
20
1034.615675
30
644.275673
0
VERTEX
8
TRAV_149
10
100.000000
20
1034.615675
30
644.275673
0
SEQEND
0
POLYLINE
8
TRAV_149
62
0
66
1
70
9
0
VERTEX
8
TRAV_149
10
100.000000
20
1034.705613
30
644.889673
0
VERTEX
8
TRAV_149
10
20.000000
20
1034.705613
30
644.889673
0
VERTEX
8
TRAV_149
10
100.000000
20
1034.615675
30
644.275673
0
SEQEND
0
POLYLINE
8
TRAV_149
62
0
66
1
70
9
0
VERTEX
8
TRAV_149
10
20.000000
20
1034.783627
30
645.505301
0
VERTEX
8
TRAV_149
10
20.000000
20
1034.705613
30
644.889673
0
VERTEX
8
TRAV_149
10
100.000000
20
1034.705613
30
644.889673
0
SEQEND
0
POLYLINE
8
TRAV_149
62
0
66
1
70
9
0
VERTEX
8
TRAV_149
10
100.000000
20
1034.783627
30
645.505301
0
VERTEX
8
TRAV_149
10
20.000000
20
1034.783627
30
645.505301
0
VERTEX
8
TRAV_149
10
100.000000
20
1034.705613
30
644.889673
0
SEQEND
0
POLYLINE
8
TRAV_149
62
0
66
1
70
9
0
VERTEX
8
TRAV_149
10
20.000000
20
1034.849689
30
646.122326
0
VERTEX
8
TRAV_149
10
20.000000
20
1034.783627
30
645.505301
0
VERTEX
8
TRAV_149
10
100.000000
20
1034.783627
30
645.505301
0
SEQEND
0
POLYLINE
8
TRAV_149
62
0
66
1
70
9
0
VERTEX
8
TRAV_149
10
100.000000
20
1034.849689
30
646.122326
0
VERTEX
8
TRAV_149
10
20.000000
20
1034.849689
30
646.122326
0
VERTEX
8
TRAV_149
10
100.000000
20
1034.783627
30
645.505301
0
SEQEND
0
POLYLINE
8
TRAV_149
62
0
66
1
70
9
0
VERTEX
8
TRAV_149
10
20.000000
20
1034.903774
30
646.740517
0
VERTEX
8
TRAV_149
10
20.000000
20
1034.849689
30
646.122326
0
VERTEX
8
TRAV_149
10
100.000000
20
1034.849689
30
646.122326
0
SEQEND
0
POLYLINE
8
TRAV_149
62
0
66
1
70
9
0
VERTEX
8
TRAV_149
10
100.000000
20
1034.903774
30
646.740517
0
VERTEX
8
TRAV_149
10
20.000000
20
1034.903774
30
646.740517
0
VERTEX
8
TRAV_149
10
100.000000
20
1034.849689
30
646.122326
0
SEQEND
0
POLYLINE
8
TRAV_149
62
0
66
1
70
9
0
VERTEX
8
TRAV_149
10
20.000000
20
1034.945861
30
647.359640
0
VERTEX
8
TRAV_149
10
20.000000
20
1034.903774
30
646.740517
0
VERTEX
8
TRAV_149
10
100.000000
20
1034.903774
30
646.740517
0
SEQEND
0
POLYLINE
8
TRAV_149
62
0
66
1
70
9
0
VERTEX
8
TRAV_149
10
100.000000
20
1034.945861
30
647.359640
0
VERTEX
8
TRAV_149
10
20.000000
20
1034.945861
30
647.359640
0
VERTEX
8
TRAV_149
10
100.000000
20
1034.903774
30
646.740517
0
SEQEND
0
POLYLINE
8
TRAV_149
62
0
66
1
70
9
0
VERTEX
8
TRAV_149
10
20.000000
20
1034.975934
30
647.979462
0
VERTEX
8
TRAV_149
10
20.000000
20
1034.945861
30
647.359640
0
VERTEX
8
TRAV_149
10
100.000000
20
1034.945861
30
647.359640
0
SEQEND
0
POLYLINE
8
TRAV_149
62
0
66
1
70
9
0
VERTEX
8
TRAV_149
10
100.000000
20
1034.975934
30
647.979462
0
VERTEX
8
TRAV_149
10
20.000000
20
1034.975934
30
647.979462
0
VERTEX
8
TRAV_149
10
100.000000
20
1034.945861
30
647.359640
0
SEQEND
0
POLYLINE
8
TRAV_149
62
0
66
1
70
9
0
VERTEX
8
TRAV_149
10
20.000000
20
1034.993983
30
648.599752
0
VERTEX
8
TRAV_149
10
20.000000
20
1034.975934
30
647.979462
0
VERTEX
8
TRAV_149
10
100.000000
20
1034.975934
30
647.979462
0
SEQEND
0
POLYLINE
8
TRAV_149
62
0
66
1
70
9
0
VERTEX
8
TRAV_149
10
100.000000
20
1034.993983
30
648.599752
0
VERTEX
8
TRAV_149
10
20.000000
20
1034.993983
30
648.599752
0
VERTEX
8
TRAV_149
10
100.000000
20
1034.975934
30
647.979462
0
SEQEND
0
POLYLINE
8
TRAV_149
62
0
66
1
70
9
0
VERTEX
8
TRAV_149
10
100.000000
20
15.294387
30
644.889673
0
VERTEX
8
TRAV_149
10
100.000000
20
15.384325
30
644.275673
0
VERTEX
8
TRAV_149
10
20.000000
20
15.384325
30
644.275673
0
SEQEND
0
POLYLINE
8
TRAV_149
62
0
66
1
70
9
0
VERTEX
8
TRAV_149
10
20.000000
20
15.294387
30
644.889673
0
VERTEX
8
TRAV_149
10
100.000000
20
15.294387
30
644.889673
0
VERTEX
8
TRAV_149
10
20.000000
20
15.384325
30
644.275673
0
SEQEND
0
POLYLINE
8
TRAV_149
62
0
66
1
70
9
0
VERTEX
8
TRAV_149
10
100.000000
20
15.216373
30
645.505301
0
VERTEX
8
TRAV_149
10
100.000000
20
15.294387
30
644.889673
0
VERTEX
8
TRAV_149
10
20.000000
20
15.294387
30
644.889673
0
SEQEND
0
POLYLINE
8
TRAV_149
62
0
66
1
70
9
0
VERTEX
8
TRAV_149
10
20.000000
20
15.216373
30
645.505301
0
VERTEX
8
TRAV_149
10
100.000000
20
15.216373
30
645.505301
0
VERTEX
8
TRAV_149
10
20.000000
20
15.294387
30
644.889673
0
SEQEND
0
POLYLINE
8
TRAV_149
62
0
66
1
70
9
0
VERTEX
8
TRAV_149
10
100.000000
20
15.150311
30
646.122326
0
VERTEX
8
TRAV_149
10
100.000000
20
15.216373
30
645.505301
0
VERTEX
8
TRAV_149
10
20.000000
20
15.216373
30
645.505301
0
SEQEND
0
POLYLINE
8
TRAV_149
62
0
66
1
70
9
0
VERTEX
8
TRAV_149
10
20.000000
20
15.150311
30
646.122326
0
VERTEX
8
TRAV_149
10
100.000000
20
15.150311
30
646.122326
0
VERTEX
8
TRAV_149
10
20.000000
20
15.216373
30
645.505301
0
SEQEND
0
POLYLINE
8
TRAV_149
62
0
66
1
70
9
0
VERTEX
8
TRAV_149
10
100.000000
20
15.096226
30
646.740517
0
VERTEX
8
TRAV_149
10
100.000000
20
15.150311
30
646.122326
0
VERTEX
8
TRAV_149
10
20.000000
20
15.150311
30
646.122326
0
SEQEND
0
POLYLINE
8
TRAV_149
62
0
66
1
70
9
0
VERTEX
8
TRAV_149
10
20.000000
20
15.096226
30
646.740517
0
VERTEX
8
TRAV_149
10
100.000000
20
15.096226
30
646.740517
0
VERTEX
8
TRAV_149
10
20.000000
20
15.150311
30
646.122326
0
SEQEND
0
POLYLINE
8
TRAV_149
62
0
66
1
70
9
0
VERTEX
8
TRAV_149
10
100.000000
20
15.054139
30
647.359640
0
VERTEX
8
TRAV_149
10
100.000000
20
15.096226
30
646.740517
0
VERTEX
8
TRAV_149
10
20.000000
20
15.096226
30
646.740517
0
SEQEND
0
POLYLINE
8
TRAV_149
62
0
66
1
70
9
0
VERTEX
8
TRAV_149
10
20.000000
20
15.054139
30
647.359640
0
VERTEX
8
TRAV_149
10
100.000000
20
15.054139
30
647.359640
0
VERTEX
8
TRAV_149
10
20.000000
20
15.096226
30
646.740517
0
SEQEND
0
POLYLINE
8
TRAV_149
62
0
66
1
70
9
0
VERTEX
8
TRAV_149
10
100.000000
20
15.024066
30
647.979462
0
VERTEX
8
TRAV_149
10
100.000000
20
15.054139
30
647.359640
0
VERTEX
8
TRAV_149
10
20.000000
20
15.054139
30
647.359640
0
SEQEND
0
POLYLINE
8
TRAV_149
62
0
66
1
70
9
0
VERTEX
8
TRAV_149
10
20.000000
20
15.024066
30
647.979462
0
VERTEX
8
TRAV_149
10
100.000000
20
15.024066
30
647.979462
0
VERTEX
8
TRAV_149
10
20.000000
20
15.054139
30
647.359640
0
SEQEND
0
POLYLINE
8
TRAV_149
62
0
66
1
70
9
0
VERTEX
8
TRAV_149
10
100.000000
20
15.006017
30
648.599752
0
VERTEX
8
TRAV_149
10
100.000000
20
15.024066
30
647.979462
0
VERTEX
8
TRAV_149
10
20.000000
20
15.024066
30
647.979462
0
SEQEND
0
POLYLINE
8
TRAV_149
62
0
66
1
70
9
0
VERTEX
8
TRAV_149
10
20.000000
20
15.006017
30
648.599752
0
VERTEX
8
TRAV_149
10
100.000000
20
15.006017
30
648.599752
0
VERTEX
8
TRAV_149
10
20.000000
20
15.024066
30
647.979462
0
SEQEND
0
POLYLINE
8
TRAV_149
62
0
66
1
70
9
0
VERTEX
8
TRAV_149
10
-55.000000
20
0.000000
30
695.000000
0
VERTEX
8
TRAV_149
10
-55.000000
20
110.000000
30
695.000000
0
VERTEX
8
TRAV_149
10
1745.000000
20
110.000000
30
695.000000
0
VERTEX
8
TRAV_149
10
1745.000000
20
0.000000
30
695.000000
0
VERTEX
8
TRAV_149
10
1670.000000
20
0.000000
30
695.000000
0
VERTEX
8
TRAV_149
10
1670.000000
20
15.000000
30
695.000000
0
VERTEX
8
TRAV_149
10
1590.000000
20
15.000000
30
695.000000
0
VERTEX
8
TRAV_149
10
1590.000000
20
0.000000
30
695.000000
0
VERTEX
8
TRAV_149
10
100.000000
20
0.000000
30
695.000000
0
VERTEX
8
TRAV_149
10
100.000000
20
15.000000
30
695.000000
0
VERTEX
8
TRAV_149
10
20.000000
20
15.000000
30
695.000000
0
VERTEX
8
TRAV_149
10
20.000000
20
0.000000
30
695.000000
0
SEQEND
0
POLYLINE
8
TRAV_149
62
0
66
1
70
9
0
VERTEX
8
TRAV_149
10
-55.000000
20
0.000000
30
750.000000
0
VERTEX
8
TRAV_149
10
20.000000
20
0.000000
30
750.000000
0
VERTEX
8
TRAV_149
10
20.000000
20
15.000000
30
750.000000
0
VERTEX
8
TRAV_149
10
100.000000
20
15.000000
30
750.000000
0
VERTEX
8
TRAV_149
10
100.000000
20
0.000000
30
750.000000
0
VERTEX
8
TRAV_149
10
1590.000000
20
0.000000
30
750.000000
0
VERTEX
8
TRAV_149
10
1590.000000
20
15.000000
30
750.000000
0
VERTEX
8
TRAV_149
10
1670.000000
20
15.000000
30
750.000000
0
VERTEX
8
TRAV_149
10
1670.000000
20
0.000000
30
750.000000
0
VERTEX
8
TRAV_149
10
1745.000000
20
0.000000
30
750.000000
0
VERTEX
8
TRAV_149
10
1745.000000
20
110.000000
30
750.000000
0
VERTEX
8
TRAV_149
10
-55.000000
20
110.000000
30
750.000000
0
SEQEND
0
POLYLINE
8
TRAV_149
62
0
66
1
70
9
0
VERTEX
8
TRAV_149
10
-55.000000
20
0.000000
30
695.000000
0
VERTEX
8
TRAV_149
10
20.000000
20
0.000000
30
695.000000
0
VERTEX
8
TRAV_149
10
20.000000
20
0.000000
30
750.000000
0
VERTEX
8
TRAV_149
10
-55.000000
20
0.000000
30
750.000000
0
SEQEND
0
POLYLINE
8
TRAV_149
62
0
66
1
70
9
0
VERTEX
8
TRAV_149
10
100.000000
20
0.000000
30
695.000000
0
VERTEX
8
TRAV_149
10
1590.000000
20
0.000000
30
695.000000
0
VERTEX
8
TRAV_149
10
1590.000000
20
0.000000
30
750.000000
0
VERTEX
8
TRAV_149
10
100.000000
20
0.000000
30
750.000000
0
SEQEND
0
POLYLINE
8
TRAV_149
62
0
66
1
70
9
0
VERTEX
8
TRAV_149
10
100.000000
20
15.000000
30
695.000000
0
VERTEX
8
TRAV_149
10
100.000000
20
15.000000
30
750.000000
0
VERTEX
8
TRAV_149
10
20.000000
20
15.000000
30
750.000000
0
VERTEX
8
TRAV_149
10
20.000000
20
15.000000
30
695.000000
0
SEQEND
0
POLYLINE
8
TRAV_149
62
0
66
1
70
9
0
VERTEX
8
TRAV_149
10
100.000000
20
0.000000
30
695.000000
0
VERTEX
8
TRAV_149
10
100.000000
20
0.000000
30
750.000000
0
VERTEX
8
TRAV_149
10
100.000000
20
15.000000
30
750.000000
0
VERTEX
8
TRAV_149
10
100.000000
20
15.000000
30
695.000000
0
SEQEND
0
POLYLINE
8
TRAV_149
62
0
66
1
70
9
0
VERTEX
8
TRAV_149
10
20.000000
20
15.000000
30
695.000000
0
VERTEX
8
TRAV_149
10
20.000000
20
15.000000
30
750.000000
0
VERTEX
8
TRAV_149
10
20.000000
20
0.000000
30
750.000000
0
VERTEX
8
TRAV_149
10
20.000000
20
0.000000
30
695.000000
0
SEQEND
0
POLYLINE
8
TRAV_149
62
0
66
1
70
9
0
VERTEX
8
TRAV_149
10
1670.000000
20
0.000000
30
695.000000
0
VERTEX
8
TRAV_149
10
1745.000000
20
0.000000
30
695.000000
0
VERTEX
8
TRAV_149
10
1745.000000
20
0.000000
30
750.000000
0
VERTEX
8
TRAV_149
10
1670.000000
20
0.000000
30
750.000000
0
SEQEND
0
POLYLINE
8
TRAV_149
62
0
66
1
70
9
0
VERTEX
8
TRAV_149
10
1670.000000
20
15.000000
30
695.000000
0
VERTEX
8
TRAV_149
10
1670.000000
20
15.000000
30
750.000000
0
VERTEX
8
TRAV_149
10
1590.000000
20
15.000000
30
750.000000
0
VERTEX
8
TRAV_149
10
1590.000000
20
15.000000
30
695.000000
0
SEQEND
0
POLYLINE
8
TRAV_149
62
0
66
1
70
9
0
VERTEX
8
TRAV_149
10
1670.000000
20
0.000000
30
695.000000
0
VERTEX
8
TRAV_149
10
1670.000000
20
0.000000
30
750.000000
0
VERTEX
8
TRAV_149
10
1670.000000
20
15.000000
30
750.000000
0
VERTEX
8
TRAV_149
10
1670.000000
20
15.000000
30
695.000000
0
SEQEND
0
POLYLINE
8
TRAV_149
62
0
66
1
70
9
0
VERTEX
8
TRAV_149
10
1590.000000
20
15.000000
30
695.000000
0
VERTEX
8
TRAV_149
10
1590.000000
20
15.000000
30
750.000000
0
VERTEX
8
TRAV_149
10
1590.000000
20
0.000000
30
750.000000
0
VERTEX
8
TRAV_149
10
1590.000000
20
0.000000
30
695.000000
0
SEQEND
0
POLYLINE
8
TRAV_149
62
0
66
1
70
9
0
VERTEX
8
TRAV_149
10
1745.000000
20
0.000000
30
695.000000
0
VERTEX
8
TRAV_149
10
1745.000000
20
110.000000
30
695.000000
0
VERTEX
8
TRAV_149
10
1745.000000
20
110.000000
30
750.000000
0
VERTEX
8
TRAV_149
10
1745.000000
20
0.000000
30
750.000000
0
SEQEND
0
POLYLINE
8
TRAV_149
62
0
66
1
70
9
0
VERTEX
8
TRAV_149
10
1745.000000
20
110.000000
30
695.000000
0
VERTEX
8
TRAV_149
10
-55.000000
20
110.000000
30
695.000000
0
VERTEX
8
TRAV_149
10
-55.000000
20
110.000000
30
750.000000
0
VERTEX
8
TRAV_149
10
1745.000000
20
110.000000
30
750.000000
0
SEQEND
0
POLYLINE
8
TRAV_149
62
0
66
1
70
9
0
VERTEX
8
TRAV_149
10
-55.000000
20
110.000000
30
695.000000
0
VERTEX
8
TRAV_149
10
-55.000000
20
0.000000
30
695.000000
0
VERTEX
8
TRAV_149
10
-55.000000
20
0.000000
30
750.000000
0
VERTEX
8
TRAV_149
10
-55.000000
20
110.000000
30
750.000000
0
SEQEND
0
POLYLINE
8
001
62
0
66
1
70
9
0
VERTEX
8
001
10
-55.000000
20
830.000000
30
695.000000
0
VERTEX
8
001
10
1745.000000
20
830.000000
30
695.000000
0
VERTEX
8
001
10
1745.000000
20
830.000000
30
750.000000
0
VERTEX
8
001
10
-55.000000
20
830.000000
30
750.000000
0
SEQEND
0
POLYLINE
8
001
62
0
66
1
70
9
0
VERTEX
8
001
10
1745.000000
20
830.000000
30
695.000000
0
VERTEX
8
001
10
1745.000000
20
930.000000
30
695.000000
0
VERTEX
8
001
10
1745.000000
20
930.000000
30
750.000000
0
VERTEX
8
001
10
1745.000000
20
830.000000
30
750.000000
0
SEQEND
0
POLYLINE
8
001
62
0
66
1
70
9
0
VERTEX
8
001
10
1745.000000
20
930.000000
30
695.000000
0
VERTEX
8
001
10
-55.000000
20
930.000000
30
695.000000
0
VERTEX
8
001
10
-55.000000
20
930.000000
30
750.000000
0
VERTEX
8
001
10
1745.000000
20
930.000000
30
750.000000
0
SEQEND
0
POLYLINE
8
001
62
0
66
1
70
9
0
VERTEX
8
001
10
-55.000000
20
930.000000
30
695.000000
0
VERTEX
8
001
10
-55.000000
20
830.000000
30
695.000000
0
VERTEX
8
001
10
-55.000000
20
830.000000
30
750.000000
0
VERTEX
8
001
10
-55.000000
20
930.000000
30
750.000000
0
SEQEND
0
POLYLINE
8
001
62
0
66
1
70
9
0
VERTEX
8
001
10
-55.000000
20
830.000000
30
695.000000
0
VERTEX
8
001
10
-55.000000
20
930.000000
30
695.000000
0
VERTEX
8
001
10
1745.000000
20
930.000000
30
695.000000
0
VERTEX
8
001
10
1745.000000
20
830.000000
30
695.000000
0
SEQEND
0
POLYLINE
8
001
62
0
66
1
70
9
0
VERTEX
8
001
10
-55.000000
20
830.000000
30
750.000000
0
VERTEX
8
001
10
1745.000000
20
830.000000
30
750.000000
0
VERTEX
8
001
10
1745.000000
20
930.000000
30
750.000000
0
VERTEX
8
001
10
-55.000000
20
930.000000
30
750.000000
0
SEQEND
0
ENDSEC
0
EOF
